999
DXF file: d:\tmp\workingDir\0000043593\v_1999_klemmschutz_q01_01.dxf
999
Pro/ENGINEER 2013430 by Parametric Technology Corporation
  0
SECTION
  2
HEADER
  9
$ACADVER
  1
AC1014
  9
$DWGCODEPAGE
  3
ANSI_1252
  9
$EXTMAX
 10
200.0
 20
120.0
 30
0.0
  9
$EXTMIN
 10
0.0
 20
-0.0
 30
0.0
  9
$LIMMIN
 10
0.0
 20
-0.0
  9
$LIMMAX
 10
200.0
 20
120.0
  9
$VIEWCTR
 10
100.0
 20
60.0
  9
$VIEWSIZE
 40
120.0
  9
$CLAYER
  8
0
  9
$LTSCALE
 40
11.0
  9
$CELTYPE
  6
BYLAYER
  9
$DIMSCALE
 40
1.0
  9
$DIMASZ
 40
3.5
  9
$DIMEXO
 40
0.0
  9
$DIMDLI
 40
7.6
  9
$DIMEXE
 40
2.0
  9
$DIMCEN
 40
1.8
  9
$DIMLFAC
 40
1.0
  9
$DIMBLK
  1
_ARROW_FILLED
  9
$DIMTXT
 40
3.5
  9
$DIMTOL
 70
1
  9
$DIMLIM
 70
0
  9
$DIMTFAC
 40
1.0
  9
$DIMTP
 40
0.01
  9
$DIMTM
 40
0.01
  9
$DIMGAP
 40
0.625
  9
$PDMODE
 70
0
  9
$PDSIZE
 40
0.04
  9
$HANDSEED
  5
325
  9
$TILEMODE
 70
1
  9
$MEASUREMENT
 70
1
  0
ENDSEC
  0
SECTION
  2
CLASSES
  0
ENDSEC
  0
SECTION
  2
TABLES
  0
TABLE
  2
VPORT
  5
8
100
AcDbSymbolTable
 70
2
  0
VPORT
  5
1F4
100
AcDbSymbolTableRecord
100
AcDbViewportTableRecord
  2
*ACTIVE
 70
0
 10
0.0
 20
0.0
 11
1.0
 21
1.0
 12
100.0
 22
60.0
 13
0.0
 23
0.0
 14
1.0
 24
1.0
 15
0.0
 25
0.0
 16
0.0
 26
0.0
 36
1.0
 17
0.0
 27
0.0
 37
0.0
 40
120.0
 41
1.6666666667
 42
50.0
 43
0.0
 44
0.0
 50
0.0
 51
0.0
 71
0
 72
100
 73
1
 74
1
 75
0
 76
0
 77
0
 78
0
  0
ENDTAB
  0
TABLE
  2
LTYPE
  5
5
100
AcDbSymbolTable
 70
6
  0
LTYPE
  5
14
100
AcDbSymbolTableRecord
100
AcDbLinetypeTableRecord
  2
BYBLOCK
 70
0
  3

 72
65
 73
0
 40
0.0
  0
LTYPE
  5
15
100
AcDbSymbolTableRecord
100
AcDbLinetypeTableRecord
  2
BYLAYER
 70
0
  3

 72
65
 73
0
 40
0.0
  0
LTYPE
  5
16
100
AcDbSymbolTableRecord
100
AcDbLinetypeTableRecord
  2
CONTINUOUS
 70
64
  3
Solid line
 72
65
 73
0
 40
0.0
  0
LTYPE
  5
1F5
100
AcDbSymbolTableRecord
100
AcDbLinetypeTableRecord
  2
CENTER
 70
64
  3
____ _ ____ _ ____ _ ____ _ ____ _ ____ _ ____
 72
65
 73
4
 40
0.6
 49
0.375
 74
0
 49
-0.075
 74
0
 49
0.075
 74
0
 49
-0.075
 74
0
  0
LTYPE
  5
1F6
100
AcDbSymbolTableRecord
100
AcDbLinetypeTableRecord
  2
HIDDEN
 70
64
  3
- - - - - - - - - - - - - - - - - - - -
 72
65
 73
2
 40
0.2
 49
0.1
 74
0
 49
-0.1
 74
0
  0
LTYPE
  5
1F7
100
AcDbSymbolTableRecord
100
AcDbLinetypeTableRecord
  2
PHANTOM
 70
64
  3
_____ _ _ _____ _ _ _____ _ _ _____
 72
65
 73
6
 40
0.8
 49
0.45
 74
0
 49
-0.05
 74
0
 49
0.1
 74
0
 49
-0.05
 74
0
 49
0.1
 74
0
 49
-0.05
 74
0
  0
LTYPE
  5
1F8
100
AcDbSymbolTableRecord
100
AcDbLinetypeTableRecord
  2
DOT
 70
64
  3
. . . . . . . . . . . . . . . . . . . .
 72
65
 73
2
 40
0.2
 49
0.1
 74
0
 49
-0.1
 74
0
  0
LTYPE
  5
1F9
100
AcDbSymbolTableRecord
100
AcDbLinetypeTableRecord
  2
DASHED
 70
64
  3
- - - - - - - - - - - - - - - - - - - -
 72
65
 73
2
 40
0.2
 49
0.1
 74
0
 49
-0.1
 74
0
  0
ENDTAB
  0
TABLE
  2
LAYER
  5
2
100
AcDbSymbolTable
 70
36
  0
LAYER
  5
10
100
AcDbSymbolTableRecord
100
AcDbLayerTableRecord
  2
0
 70
0
 62
7
  6
CONTINUOUS
  0
LAYER
  5
1FA
100
AcDbSymbolTableRecord
100
AcDbLayerTableRecord
  2
DEFAULT_1
 70
0
 62
7
  6
CENTER
  0
LAYER
  5
1FB
100
AcDbSymbolTableRecord
100
AcDbLayerTableRecord
  2
DEFAULT_2
 70
0
 62
8
  6
HIDDEN
  0
LAYER
  5
1FC
100
AcDbSymbolTableRecord
100
AcDbLayerTableRecord
  2
DEFAULT_3
 70
0
 62
7
  6
PHANTOM
  0
LAYER
  5
1FD
100
AcDbSymbolTableRecord
100
AcDbLayerTableRecord
  2
A_ACHSEN
 70
0
 62
7
  6
CONTINUOUS
  0
LAYER
  5
1FE
100
AcDbSymbolTableRecord
100
AcDbLayerTableRecord
  2
A_BASISEBENEN
 70
0
 62
7
  6
CONTINUOUS
  0
LAYER
  5
1FF
100
AcDbSymbolTableRecord
100
AcDbLayerTableRecord
  2
A_BEMASSUNGEN
 70
0
 62
7
  6
CONTINUOUS
  0
LAYER
  5
200
100
AcDbSymbolTableRecord
100
AcDbLayerTableRecord
  2
A_BOHRUNGEN
 70
0
 62
7
  6
CONTINUOUS
  0
LAYER
  5
201
100
AcDbSymbolTableRecord
100
AcDbLayerTableRecord
  2
A_EBENEN
 70
0
 62
7
  6
CONTINUOUS
  0
LAYER
  5
202
100
AcDbSymbolTableRecord
100
AcDbLayerTableRecord
  2
A_FASEN
 70
0
 62
7
  6
CONTINUOUS
  0
LAYER
  5
203
100
AcDbSymbolTableRecord
100
AcDbLayerTableRecord
  2
A_FLAECHEN
 70
0
 62
7
  6
CONTINUOUS
  0
LAYER
  5
204
100
AcDbSymbolTableRecord
100
AcDbLayerTableRecord
  2
A_FL_VERBAENDE
 70
0
 62
7
  6
CONTINUOUS
  0
LAYER
  5
205
100
AcDbSymbolTableRecord
100
AcDbLayerTableRecord
  2
A_KURVEN
 70
0
 62
7
  6
CONTINUOUS
  0
LAYER
  5
206
100
AcDbSymbolTableRecord
100
AcDbLayerTableRecord
  2
A_NOTIZEN_SYMB
 70
0
 62
7
  6
CONTINUOUS
  0
LAYER
  5
207
100
AcDbSymbolTableRecord
100
AcDbLayerTableRecord
  2
A_PUNKTE
 70
0
 62
7
  6
CONTINUOUS
  0
LAYER
  5
208
100
AcDbSymbolTableRecord
100
AcDbLayerTableRecord
  2
A_RUNDUNGEN
 70
0
 62
7
  6
CONTINUOUS
  0
LAYER
  5
209
100
AcDbSymbolTableRecord
100
AcDbLayerTableRecord
  2
BASISEBENEN
 70
0
 62
7
  6
CONTINUOUS
  0
LAYER
  5
20A
100
AcDbSymbolTableRecord
100
AcDbLayerTableRecord
  2
BEZUG_KURV
 70
0
 62
7
  6
CONTINUOUS
  0
LAYER
  5
20B
100
AcDbSymbolTableRecord
100
AcDbLayerTableRecord
  2
SCHRAUBENANSICHT_MONTIERT
 70
0
 62
7
  6
CONTINUOUS
  0
LAYER
  5
20C
100
AcDbSymbolTableRecord
100
AcDbLayerTableRecord
  2
SURF_NETZ
 70
0
 62
7
  6
CONTINUOUS
  0
LAYER
  5
20D
100
AcDbSymbolTableRecord
100
AcDbLayerTableRecord
  2
VORDERANS_PACK_MONTIERT
 70
0
 62
7
  6
CONTINUOUS
  0
LAYER
  5
20E
100
AcDbSymbolTableRecord
100
AcDbLayerTableRecord
  2
XSEC_DATUMS
 70
0
 62
7
  6
CONTINUOUS
  0
ENDTAB
  0
TABLE
  2
STYLE
  5
3
100
AcDbSymbolTable
 70
1
  0
STYLE
  5
11
100
AcDbSymbolTableRecord
100
AcDbTextStyleTableRecord
  2
STANDARD
 70
0
 40
0.0
 41
1.0
 50
0.0
 71
0
 42
0.2
  3
txt
  4

  0
STYLE
  5
20F
100
AcDbSymbolTableRecord
100
AcDbTextStyleTableRecord
  2
TEXTSTYLE_1
 70
0
 40
0.0
 41
0.8
 50
0.0
 71
0
 42
0.2
  3
gdt
  4

  0
ENDTAB
  0
TABLE
  2
VIEW
  5
6
100
AcDbSymbolTable
 70
0
  0
ENDTAB
  0
TABLE
  2
UCS
  5
7
100
AcDbSymbolTable
 70
0
  0
ENDTAB
  0
TABLE
  2
APPID
  5
9
100
AcDbSymbolTable
 70
1
  0
APPID
  5
210
100
AcDbSymbolTableRecord
100
AcDbRegAppTableRecord
  2
ACAD
 70
0
  0
ENDTAB
  0
TABLE
  2
BLOCK_RECORD
  5
1
100
AcDbSymbolTable
 70
0
  0
BLOCK_RECORD
  5
1F
100
AcDbSymbolTableRecord
100
AcDbBlockTableRecord
  2
*MODEL_SPACE
  0
BLOCK_RECORD
  5
1B
100
AcDbSymbolTableRecord
100
AcDbBlockTableRecord
  2
*PAPER_SPACE
  0
ENDTAB
  0
TABLE
  2
DIMSTYLE
  5
A
100
AcDbSymbolTable
 70
1
  0
DIMSTYLE
105
211
100
AcDbSymbolTableRecord
100
AcDbDimStyleTableRecord
  2
STANDARD
 70
0
  3

  4

  5
_ARROW_FILLED
  6
_ARROW_FILLED
  7
_ARROW_FILLED
 40
1.0
 41
3.5
 42
0.0
 43
0.38
 44
2.0
 45
0.0
 46
0.0
 47
0.01
 48
0.01
140
3.5
141
0.09
142
0.0
143
25.4
144
1.0
145
0.0
146
1.0
147
0.625
 71
1.0
 72
0.0
 73
0
 74
0
 75
0
 76
0
 77
1
 78
8
170
0
171
2
172
0
173
0
174
0
175
0
176
0
177
0
178
5
270
2
271
2
272
2
273
2
274
2
275
0
280
0
281
0
282
0
283
1
284
8
285
0
286
0
287
3
288
0
340
11
  0
ENDTAB
  0
ENDSEC
  0
SECTION
  2
BLOCKS
  0
BLOCK
  5
20
100
AcDbEntity
  8
0
100
AcDbBlockBegin
  2
*MODEL_SPACE
 70
0
 10
0.0
 20
0.0
 30
0.0
  3
*MODEL_SPACE
  1

  0
ENDBLK
  5
21
100
AcDbEntity
  8
0
100
AcDbBlockEnd
  0
BLOCK
  5
1C
100
AcDbEntity
  8
0
100
AcDbBlockBegin
  2
*PAPER_SPACE
 70
0
 10
0.0
 20
0.0
 30
0.0
  3
*PAPER_SPACE
  1

  0
ENDBLK
  5
1D
100
AcDbEntity
  8
0
100
AcDbBlockEnd
  0
ENDSEC
  0
SECTION
  2
ENTITIES
  0
HATCH
  5
212
100
AcDbEntity
  8
0
100
AcDbHatch
 62
2
  6
CONTINUOUS
 10
0.0
 20
0.0
 30
0.0
210
0.0
220
0.0
230
1.0
  2
A
 70
0
 71
0
 91
2
 92
1
 93
79
 72
1
 10
51.0572849501
 20
63.9649992196
 11
52.0996915115
 21
62.9839493825
 72
4
 94
3
 73
1
 74
0
 95
8
 96
4
 40
0.0
 40
0.0
 40
0.0
 40
0.0
 40
1.0
 40
1.0
 40
1.0
 40
1.0
 10
52.0996915115
 20
62.9839493825
 42
1.0
 10
52.1956714673
 20
62.8936188689
 42
0.8047378541
 10
52.1996662263
 20
62.7618774726
 42
0.8047378541
 10
52.1093357127
 20
62.6658975167
 42
1.0
 72
1
 10
52.1093357127
 20
62.6658975167
 11
49.4420229083
 21
59.831765892
 72
4
 94
3
 73
1
 74
0
 95
8
 96
4
 40
0.0
 40
0.0
 40
0.0
 40
0.0
 40
1.0
 40
1.0
 40
1.0
 40
1.0
 10
49.4516671096
 20
59.5137140261
 42
1.0
 10
49.3556871537
 20
59.6040445397
 42
0.8047378541
 10
49.3516923947
 20
59.7357859361
 42
0.8047378541
 10
49.4420229083
 20
59.831765892
 42
1.0
 72
1
 10
49.4516671096
 20
59.5137140261
 11
49.7949525002
 21
59.1906346356
 72
2
 10
49.6407486218
 20
59.0267864442
 40
0.2250001466
 50
327.4149721777
 51
46.7368513339
 73
1
 72
4
 94
3
 73
1
 74
0
 95
8
 96
4
 40
0.0
 40
0.0
 40
0.0
 40
0.0
 40
1.0
 40
1.0
 40
1.0
 40
1.0
 10
45.9869169708
 20
45.9504513065
 42
1.0
 10
46.0242965862
 20
50.575061376
 42
0.9739785404
 10
47.3396627451
 20
55.0088213378
 42
0.9739785404
 10
49.8303322055
 20
58.9056124752
 42
1.0
 72
2
 10
46.2369084952
 20
45.9484305865
 40
0.2499996911
 50
179.5368794696
 51
271.7368548822
 73
1
 72
1
 10
60.0052138824
 20
46.115808611
 11
46.2444857843
 21
45.6985457526
 72
2
 10
60.0120334438
 20
45.8909122612
 40
0.2249997213
 50
359.2402856684
 51
91.736855199
 73
1
 72
4
 94
3
 73
1
 74
0
 95
8
 96
4
 40
0.0
 40
0.0
 40
0.0
 40
0.0
 40
1.0
 40
1.0
 40
1.0
 40
1.0
 10
60.2382715827
 20
45.5438159313
 42
1.0
 10
60.2359118361
 20
45.6585077095
 42
0.9999046248
 10
60.2354923972
 20
45.7732229937
 42
0.9999046248
 10
60.2370133862
 20
45.8879289612
 42
1.0
 72
1
 10
60.2382715827
 20
45.5438159313
 11
60.412828059
 21
45.4499716484
 72
1
 10
60.412828059
 20
45.4499716484
 11
60.2442782878
 21
45.345723447
 72
4
 94
3
 73
1
 74
0
 95
8
 96
4
 40
0.0
 40
0.0
 40
0.0
 40
0.0
 40
1.0
 40
1.0
 40
1.0
 40
1.0
 10
60.2638721261
 20
45.0021664039
 42
1.0
 10
60.2554039254
 20
45.1165694718
 42
0.9999046248
 10
60.248872023
 20
45.2310994095
 42
0.9999046248
 10
60.2442782878
 20
45.345723447
 42
1.0
 72
2
 10
60.0394862848
 20
44.985557106
 40
0.2249997213
 50
271.7368094565
 51
4.2333789872
 73
1
 72
1
 10
46.2855775685
 20
44.3433978923
 11
60.0463056666
 21
44.7606607507
 72
2
 10
46.2931546609
 20
44.0935130523
 40
0.2499996911
 50
91.7368097733
 51
183.9367851859
 73
1
 72
4
 94
3
 73
1
 74
0
 95
8
 96
4
 40
0.0
 40
0.0
 40
0.0
 40
0.0
 40
1.0
 40
1.0
 40
1.0
 40
1.0
 10
46.0437448676
 20
44.0763491204
 42
1.0
 10
46.4483051437
 20
38.1976334926
 42
0.9585923417
 10
48.867280323
 20
32.8244104811
 42
0.9585923417
 10
53.0001781126
 20
28.6241578327
 42
1.0
 72
2
 10
53.1783776795
 20
28.79949967
 40
0.2499996911
 50
224.5368794696
 51
316.7368548822
 73
1
 72
1
 10
62.7956856481
 20
38.6535159109
 11
53.3604308926
 21
28.6281623619
 72
2
 10
62.9595335402
 20
38.499312335
 40
0.2249997213
 50
44.2402856684
 51
136.736855199
 73
1
 72
4
 94
3
 73
1
 74
0
 95
8
 96
4
 40
0.0
 40
0.0
 40
0.0
 40
0.0
 40
1.0
 40
1.0
 40
1.0
 40
1.0
 10
63.364942231
 20
38.4138526886
 42
1.0
 10
63.2821743041
 20
38.4932834298
 42
0.9999046248
 10
63.2007617606
 20
38.5741027971
 42
0.9999046248
 10
63.1207278948
 20
38.6562876662
 42
1.0
 72
1
 10
63.364942231
 20
38.4138526886
 11
63.5547302279
 21
38.4709248278
 72
1
 10
63.5547302279
 20
38.4709248278
 11
63.5092621519
 21
38.2780275315
 72
4
 94
3
 73
1
 74
0
 95
8
 96
4
 40
0.0
 40
0.0
 40
0.0
 40
0.0
 40
1.0
 40
1.0
 40
1.0
 40
1.0
 10
63.7660486027
 20
38.0489509525
 42
1.0
 10
63.6791654954
 20
38.1238582155
 42
0.9999046248
 10
63.5935618474
 20
38.2002243586
 42
0.9999046248
 10
63.5092621519
 20
38.2780275315
 42
1.0
 72
2
 10
63.6191283999
 20
37.8785416553
 40
0.2249997213
 50
316.7368094565
 51
49.2333789872
 73
1
 72
1
 10
54.3477214134
 20
27.6989843996
 11
63.7829761689
 21
37.7243379486
 72
2
 10
54.5297744916
 20
27.5276469482
 40
0.2499996911
 50
136.7368097733
 51
228.9367851859
 73
1
 72
4
 94
3
 73
1
 74
0
 95
8
 96
4
 40
0.0
 40
0.0
 40
0.0
 40
0.0
 40
1.0
 40
1.0
 40
1.0
 40
1.0
 10
54.3655518681
 20
27.3391508594
 42
1.0
 10
58.8084988679
 20
23.468338489
 42
0.9585923417
 10
64.3184150489
 20
21.3793698135
 42
0.9585923417
 10
70.2108422323
 20
21.3317427361
 42
1.0
 72
2
 10
70.2128629523
 20
21.5817342604
 40
0.2499996911
 50
269.5368794696
 51
1.7368548822
 73
1
 72
1
 10
70.0454849278
 20
35.3500396476
 11
70.4627477862
 21
21.5893115495
 72
2
 10
70.2703812775
 20
35.356859209
 40
0.2249997213
 50
89.2402856684
 51
181.736855199
 73
1
 72
4
 94
3
 73
1
 74
0
 95
8
 96
4
 40
0.0
 40
0.0
 40
0.0
 40
0.0
 40
1.0
 40
1.0
 40
1.0
 40
1.0
 10
70.6174776075
 20
35.5830973479
 42
1.0
 10
70.5027858293
 20
35.5807376013
 42
0.9999046248
 10
70.3880705451
 20
35.5803181624
 42
0.9999046248
 10
70.2733645776
 20
35.5818391515
 42
1.0
 72
1
 10
70.6174776075
 20
35.5830973479
 11
70.7113218904
 21
35.7576538242
 72
1
 10
70.7113218904
 20
35.7576538242
 11
70.8155700918
 21
35.5891040531
 72
4
 94
3
 73
1
 74
0
 95
8
 96
4
 40
0.0
 40
0.0
 40
0.0
 40
0.0
 40
1.0
 40
1.0
 40
1.0
 40
1.0
 10
71.1591271349
 20
35.6086978913
 42
1.0
 10
71.044724067
 20
35.6002296906
 42
0.9999046248
 10
70.9301941293
 20
35.5936977882
 42
0.9999046248
 10
70.8155700918
 20
35.5891040531
 42
1.0
 72
2
 10
71.1757364328
 20
35.38431205
 40
0.2249997213
 50
1.7368094565
 51
94.2333789872
 73
1
 72
1
 10
71.8178956465
 20
21.6304033337
 11
71.4006327881
 21
35.3911314319
 72
2
 10
72.0677804865
 20
21.6379804261
 40
0.2499996911
 50
181.7368097733
 51
273.9367851859
 73
1
 72
4
 94
3
 73
1
 74
0
 95
8
 96
4
 40
0.0
 40
0.0
 40
0.0
 40
0.0
 40
1.0
 40
1.0
 40
1.0
 40
1.0
 10
72.0849444184
 20
21.3885706328
 42
1.0
 10
77.9636600462
 20
21.7931309089
 42
0.9585923417
 10
83.3368830577
 20
24.2121060882
 42
0.9585923417
 10
87.5371357061
 20
28.3450038778
 42
1.0
 72
2
 10
87.3617938688
 20
28.5232034447
 40
0.2499996911
 50
314.5368794696
 51
46.7368548822
 73
1
 72
1
 10
77.5077776279
 20
38.1405114133
 11
87.5331311769
 21
28.7052566578
 72
2
 10
77.6619812038
 20
38.3043593054
 40
0.2249997213
 50
134.2402856684
 51
226.736855199
 73
1
 72
4
 94
3
 73
1
 74
0
 95
8
 96
4
 40
0.0
 40
0.0
 40
0.0
 40
0.0
 40
1.0
 40
1.0
 40
1.0
 40
1.0
 10
77.7474408502
 20
38.7097679962
 42
1.0
 10
77.668010109
 20
38.6270000693
 42
0.9999046248
 10
77.5871907417
 20
38.5455875258
 42
0.9999046248
 10
77.5050058726
 20
38.46555366
 42
1.0
 72
1
 10
77.7474408502
 20
38.7097679962
 11
77.690368711
 21
38.8995559931
 72
1
 10
77.690368711
 20
38.8995559931
 11
77.8832660073
 21
38.8540879171
 72
4
 94
3
 73
1
 74
0
 95
8
 96
4
 40
0.0
 40
0.0
 40
0.0
 40
0.0
 40
1.0
 40
1.0
 40
1.0
 40
1.0
 10
78.1123425863
 20
39.1108743679
 42
1.0
 10
78.0374353233
 20
39.0239912607
 42
0.9999046248
 10
77.9610691802
 20
38.9383876126
 42
0.9999046248
 10
77.8832660073
 20
38.8540879171
 42
1.0
 72
2
 10
78.2827518835
 20
38.9639541651
 40
0.2249997213
 50
46.7368094565
 51
139.2333789872
 73
1
 72
1
 10
88.4623091392
 20
29.6925471786
 11
78.4369555902
 21
39.1278019341
 72
2
 10
88.6336465906
 20
29.8746002568
 40
0.2499996911
 50
226.7368097733
 51
318.9367851859
 73
1
 72
4
 94
3
 73
1
 74
0
 95
8
 96
4
 40
0.0
 40
0.0
 40
0.0
 40
0.0
 40
1.0
 40
1.0
 40
1.0
 40
1.0
 10
88.8221426794
 20
29.7103776333
 42
1.0
 10
92.6929550498
 20
34.1533246331
 42
0.9585923417
 10
94.7819237253
 20
39.6632408141
 42
0.9585923417
 10
94.8295508027
 20
45.5556679975
 42
1.0
 72
2
 10
94.5795592784
 20
45.5576887175
 40
0.2499996911
 50
359.5368794696
 51
91.7368548822
 73
1
 72
1
 10
80.8112538912
 20
45.390310693
 11
94.5719819893
 21
45.8075735515
 72
2
 10
80.8044343298
 20
45.6152070428
 40
0.2249997213
 50
179.2402856684
 51
271.736855199
 73
1
 72
4
 94
3
 73
1
 74
0
 95
8
 96
4
 40
0.0
 40
0.0
 40
0.0
 40
0.0
 40
1.0
 40
1.0
 40
1.0
 40
1.0
 10
80.5781961909
 20
45.9623033727
 42
1.0
 10
80.5805559375
 20
45.8476115946
 42
0.9999046248
 10
80.5809753764
 20
45.7328963103
 42
0.9999046248
 10
80.5794543873
 20
45.6181903429
 42
1.0
 72
1
 10
80.5781961909
 20
45.9623033727
 11
80.4036397146
 21
46.0561476556
 72
1
 10
80.4036397146
 20
46.0561476556
 11
80.5721894857
 21
46.160395857
 72
4
 94
3
 73
1
 74
0
 95
8
 96
4
 40
0.0
 40
0.0
 40
0.0
 40
0.0
 40
1.0
 40
1.0
 40
1.0
 40
1.0
 10
80.5525956475
 20
46.5039529001
 42
1.0
 10
80.5610638482
 20
46.3895498322
 42
0.9999046248
 10
80.5675957506
 20
46.2750198945
 42
0.9999046248
 10
80.5721894857
 20
46.160395857
 42
1.0
 72
2
 10
80.7769814888
 20
46.520562198
 40
0.2249997213
 50
91.7368094565
 51
184.2333789872
 73
1
 72
1
 10
94.5308902051
 20
47.1627214117
 11
80.7701621069
 21
46.7454585533
 72
2
 10
94.5233131127
 20
47.4126062517
 40
0.2499996911
 50
271.7368097733
 51
3.9367851859
 73
1
 72
4
 94
3
 73
1
 74
0
 95
8
 96
4
 40
0.0
 40
0.0
 40
0.0
 40
0.0
 40
1.0
 40
1.0
 40
1.0
 40
1.0
 10
94.772722906
 20
47.4297701836
 42
1.0
 10
94.3681626299
 20
53.3084858114
 42
0.9585923417
 10
91.9491874506
 20
58.6817088229
 42
0.9585923417
 10
87.816289661
 20
62.8819614713
 42
1.0
 72
2
 10
87.6380900941
 20
62.706619634
 40
0.2499996911
 50
44.5368794696
 51
136.7368548822
 73
1
 72
1
 10
78.0207821255
 20
52.8526033931
 11
87.456036881
 21
62.8779569421
 72
2
 10
77.8569342334
 20
53.006806969
 40
0.2249997213
 50
224.2402856684
 51
316.736855199
 73
1
 72
4
 94
3
 73
1
 74
0
 95
8
 96
4
 40
0.0
 40
0.0
 40
0.0
 40
0.0
 40
1.0
 40
1.0
 40
1.0
 40
1.0
 10
77.4515255426
 20
53.0922666155
 42
1.0
 10
77.5342934695
 20
53.0128358742
 42
0.9999046248
 10
77.615706013
 20
52.9320165069
 42
0.9999046248
 10
77.6957398787
 20
52.8498316378
 42
1.0
 72
1
 10
77.4515255426
 20
53.0922666155
 11
77.2617375457
 21
53.0351944762
 72
1
 10
77.2617375457
 20
53.0351944762
 11
77.3072056217
 21
53.2280917725
 72
4
 94
3
 73
1
 74
0
 95
8
 96
4
 40
0.0
 40
0.0
 40
0.0
 40
0.0
 40
1.0
 40
1.0
 40
1.0
 40
1.0
 10
77.0504191709
 20
53.4571683515
 42
1.0
 10
77.1373022781
 20
53.3822610885
 42
0.9999046248
 10
77.2229059262
 20
53.3058949454
 42
0.9999046248
 10
77.3072056217
 20
53.2280917725
 42
1.0
 72
2
 10
77.1973393737
 20
53.6275776487
 40
0.2249997213
 50
136.7368094565
 51
229.2333789872
 73
1
 72
1
 10
86.4687463602
 20
63.8071349044
 11
77.0334916047
 21
53.7817813554
 72
2
 10
86.286693282
 20
63.9784723558
 40
0.2499996911
 50
316.7368097733
 51
48.9367851859
 73
1
 72
4
 94
3
 73
1
 74
0
 95
8
 96
4
 40
0.0
 40
0.0
 40
0.0
 40
0.0
 40
1.0
 40
1.0
 40
1.0
 40
1.0
 10
86.4509159055
 20
64.1669684446
 42
1.0
 10
82.3626103925
 20
67.7288078171
 42
0.9646596698
 10
77.3467354404
 20
69.7884049012
 42
0.9646596698
 10
71.9350790798
 20
70.1273991739
 42
1.0
 72
1
 10
74.6841687892
 20
72.3485543082
 11
71.9350790798
 21
70.1273991739
 72
2
 10
74.8412418094
 20
72.1541470471
 40
0.249974043
 50
104.6242571525
 51
128.9367763647
 73
1
 72
1
 10
74.7781383228
 20
72.3959852802
 11
74.9128225986
 21
72.431128979
 72
2
 10
74.9759377156
 20
72.1892469447
 40
0.2499924713
 50
80.1970736192
 51
104.6243017788
 73
1
 72
4
 94
3
 73
1
 74
0
 95
11
 96
7
 40
0.0
 40
0.0
 40
0.0
 40
0.0
 40
1.0
 40
1.0
 40
1.0
 40
2.0
 40
2.0
 40
2.0
 40
2.0
 10
75.0185011375
 20
72.4355878601
 42
1.0
 10
109.5336664865
 20
66.4719799433
 42
0.4991764259
 10
112.3436834013
 20
31.5582997679
 42
0.4991764259
 10
79.2265837386
 20
20.1513296013
 42
1.0
 10
46.1094840759
 20
8.7443594347
 42
0.4991764259
 10
26.8227404827
 20
37.9827379811
 42
0.4991764259
 10
50.3441205342
 20
63.9366575102
 42
1.0
 72
2
 10
50.7146094694
 20
63.6008924119
 40
0.5000002524
 50
46.7368127069
 51
137.8147499671
 73
1
 97
0
 92
1
 93
7
 72
4
 94
3
 73
1
 74
0
 95
8
 96
4
 40
0.0
 40
0.0
 40
0.0
 40
0.0
 40
1.0
 40
1.0
 40
1.0
 40
1.0
 10
57.5270268207
 20
69.5708341118
 42
1.0
 10
58.9966814624
 20
70.3656575655
 42
0.9971546068
 10
60.5334199767
 20
71.021450084
 42
0.9971546068
 10
62.1241244876
 20
71.5326137048
 42
1.0
 72
2
 10
62.2006430821
 20
71.2945970109
 40
0.2498810375
 50
28.4628684502
 51
107.821778902
 73
1
 72
1
 10
62.4202544382
 20
71.4136520429
 11
62.5043592542
 21
71.2584673864
 72
2
 10
62.2847348063
 20
71.139392068
 40
0.2499288438
 50
309.5449994365
 51
28.4655257152
 73
1
 72
1
 10
62.4438286652
 20
70.9467043293
 11
59.9853443323
 21
68.9174304595
 72
4
 94
3
 73
1
 74
0
 95
8
 96
4
 40
0.0
 40
0.0
 40
0.0
 40
0.0
 40
1.0
 40
1.0
 40
1.0
 40
1.0
 10
59.9853443323
 20
68.9174304595
 42
1.0
 10
59.2291558473
 20
69.1475528905
 42
0.9871920586
 10
58.4426037781
 20
69.2257398482
 42
0.9871920586
 10
57.6559104629
 20
69.1489870905
 42
1.0
 72
2
 10
57.6340609016
 20
69.3729234853
 40
0.224999802
 50
118.4054217867
 51
275.572732098
 73
1
 97
0
 75
0
 76
0
 52
45.0
 41
100.0
 77
0
 78
1
 53
45.0
 43
0.0
 44
0.0
 45
-70.7106781187
 46
70.7106781187
 79
0
 98
1
 10
0.0
 20
0.0
  0
HATCH
  5
213
100
AcDbEntity
  8
0
100
AcDbHatch
 62
2
  6
CONTINUOUS
 10
0.0
 20
0.0
 30
0.0
210
0.0
220
0.0
230
1.0
  2
default__1
 70
0
 71
0
 91
1
 92
1
 93
8
 72
1
 10
92.8082337857
 20
25.7530595387
 11
181.8082337857
 21
25.7530590887
 72
1
 10
92.8082337857
 20
25.7530595387
 11
92.8082338034
 21
29.2530595387
 72
1
 10
100.3082338034
 20
29.2530595008
 11
92.8082338034
 21
29.2530595387
 72
1
 10
100.3082339702
 20
62.2530595008
 11
100.3082338034
 21
29.2530595008
 72
1
 10
100.3082339702
 20
62.2530595008
 11
92.8082339702
 21
62.2530595387
 72
1
 10
92.8082339702
 20
62.2530595387
 11
92.8082339879
 21
65.7530595387
 72
1
 10
181.8082339879
 20
65.7530590887
 11
92.8082339879
 21
65.7530595387
 72
1
 10
181.8082337857
 20
25.7530590887
 11
181.8082339879
 21
65.7530590887
 97
0
 75
0
 76
0
 52
45.0
 41
100.0
 77
0
 78
1
 53
45.0
 43
0.0
 44
0.0
 45
-70.7106781187
 46
70.7106781187
 79
0
 98
1
 10
0.0
 20
0.0
  0
HATCH
  5
214
100
AcDbEntity
  8
0
100
AcDbHatch
 62
2
  6
CONTINUOUS
 10
0.0
 20
0.0
 30
0.0
210
0.0
220
0.0
230
1.0
  2
default__2
 70
0
 71
0
 91
2
 92
1
 93
10
 72
1
 10
64.1854480265
 20
47.631073533
 11
64.8603028909
 21
49.8672004064
 72
4
 94
3
 73
1
 74
0
 95
11
 96
7
 40
0.0
 40
0.0
 40
0.0
 40
0.0
 40
1.0
 40
1.0
 40
1.0
 40
2.0
 40
2.0
 40
2.0
 40
2.0
 10
64.1854480265
 20
47.631073533
 42
1.0
 10
61.3636041835
 20
38.2809136945
 42
0.4381650262
 10
70.1537127324
 20
34.0238861662
 42
0.4381650262
 10
75.7400024534
 20
42.035231798
 42
1.0
 10
81.3262921744
 20
50.0465774298
 42
0.4381650262
 10
74.2930442497
 20
56.8231337314
 42
0.4381650262
 10
66.4948326706
 20
50.9429817055
 42
1.0
 72
1
 10
64.3876166312
 20
53.7375551189
 11
66.4948326706
 21
50.9429817055
 72
4
 94
3
 73
1
 74
0
 95
11
 96
7
 40
0.0
 40
0.0
 40
0.0
 40
0.0
 40
1.0
 40
1.0
 40
1.0
 40
2.0
 40
2.0
 40
2.0
 40
2.0
 10
60.8347171787
 20
48.6423117766
 42
1.0
 10
56.4934189587
 20
34.2574504867
 42
0.4381650262
 10
70.0166628801
 20
27.7081773661
 42
0.4381650262
 10
78.6109547585
 20
40.033324492
 42
1.0
 10
87.2052466369
 20
52.3584716179
 42
0.4381650262
 10
76.3848652143
 20
62.7839428511
 42
0.4381650262
 10
64.3876166312
 20
53.7375551189
 42
1.0
 72
1
 10
60.8347171787
 20
48.6423117766
 11
61.5095720431
 21
50.87843865
 72
4
 94
3
 73
1
 74
0
 95
8
 96
4
 40
0.0
 40
0.0
 40
0.0
 40
0.0
 40
1.0
 40
1.0
 40
1.0
 40
1.0
 10
61.5095720431
 20
50.87843865
 42
1.0
 10
61.6067626227
 20
51.2004789557
 42
0.9232425777
 10
61.5427406768
 20
51.5307169877
 42
0.9232425777
 10
61.332248684
 20
51.7931080856
 42
1.0
 72
1
 10
61.332248684
 20
51.7931080856
 11
56.4143083846
 21
57.9236204049
 72
1
 10
56.4143083846
 20
57.9236204049
 11
59.1444074757
 21
60.1137251861
 72
1
 10
64.0623477751
 20
53.9832128668
 11
59.1444074757
 21
60.1137251861
 72
4
 94
3
 73
1
 74
0
 95
8
 96
4
 40
0.0
 40
0.0
 40
0.0
 40
0.0
 40
1.0
 40
1.0
 40
1.0
 40
1.0
 10
64.8603028909
 20
49.8672004064
 42
1.0
 10
65.2976604991
 20
51.3163817823
 42
0.9232425777
 10
65.0095617426
 20
52.8024529261
 42
0.9232425777
 10
64.0623477751
 20
53.9832128668
 42
1.0
 97
0
 92
1
 93
4
 72
1
 10
50.9390464316
 20
64.7488681327
 11
53.6691455227
 21
66.9389729139
 72
1
 10
55.3899421365
 20
64.7938950566
 11
53.6691455227
 21
66.9389729139
 72
1
 10
52.6598430454
 20
62.6037902754
 11
55.3899421365
 21
64.7938950566
 72
1
 10
52.6598430454
 20
62.6037902754
 11
50.9390464316
 21
64.7488681327
 97
0
 75
0
 76
0
 52
325.0
 41
100.0
 77
0
 78
1
 53
325.0
 43
0.0
 44
0.0
 45
57.3576436351
 46
81.9152044289
 79
0
 98
1
 10
0.0
 20
0.0
  0
HATCH
  5
215
100
AcDbEntity
  8
0
100
AcDbHatch
 62
2
  6
CONTINUOUS
 10
0.0
 20
0.0
 30
0.0
210
0.0
220
0.0
230
1.0
  2
default__3
 70
0
 71
0
 91
1
 92
1
 93
28
 72
1
 10
11.1166925359
 20
55.3285907053
 11
11.1166925359
 21
43.3285907053
 72
1
 10
12.7166925359
 20
55.3285907053
 11
11.1166925359
 21
55.3285907053
 72
1
 10
12.7166925359
 20
43.3285907053
 11
12.7166925359
 21
55.3285907053
 72
4
 94
3
 73
1
 74
0
 95
8
 96
4
 40
0.0
 40
0.0
 40
0.0
 40
0.0
 40
1.0
 40
1.0
 40
1.0
 40
1.0
 10
12.7166925359
 20
43.3285907053
 42
1.0
 10
12.7166925359
 20
42.5084896926
 42
0.8047378541
 10
13.2965915233
 20
41.9285907053
 42
0.8047378541
 10
14.1166925359
 20
41.9285907053
 42
1.0
 72
1
 10
38.1166925359
 20
41.9285907053
 11
14.1166925359
 21
41.9285907053
 72
4
 94
3
 73
1
 74
0
 95
8
 96
4
 40
0.0
 40
0.0
 40
0.0
 40
0.0
 40
1.0
 40
1.0
 40
1.0
 40
1.0
 10
38.1166925359
 20
41.9285907053
 42
1.0
 10
38.9367935486
 20
41.9285907053
 42
0.8047378541
 10
39.5166925359
 20
42.5084896926
 42
0.8047378541
 10
39.5166925359
 20
43.3285907053
 42
1.0
 72
1
 10
39.5166925359
 20
78.3285907053
 11
39.5166925359
 21
43.3285907053
 72
4
 94
3
 73
1
 74
0
 95
8
 96
4
 40
0.0
 40
0.0
 40
0.0
 40
0.0
 40
1.0
 40
1.0
 40
1.0
 40
1.0
 10
43.5166925359
 20
82.3285907053
 42
1.0
 10
41.1735467854
 20
82.3285907053
 42
0.8047378541
 10
39.5166925359
 20
80.6717364558
 42
0.8047378541
 10
39.5166925359
 20
78.3285907053
 42
1.0
 72
1
 10
49.5166925359
 20
82.3285907053
 11
43.5166925359
 21
82.3285907053
 72
4
 94
3
 73
1
 74
0
 95
8
 96
4
 40
0.0
 40
0.0
 40
0.0
 40
0.0
 40
1.0
 40
1.0
 40
1.0
 40
1.0
 10
53.4820407282
 20
77.8032206317
 42
1.0
 10
53.8229590791
 20
80.3763781726
 42
0.7726908141
 10
52.1123360115
 20
82.3285907053
 42
0.7726908141
 10
49.5166925359
 20
82.3285907053
 42
1.0
 72
1
 10
52.8236228975
 20
72.83366472
 11
53.4820407282
 21
77.8032206317
 72
4
 94
3
 73
1
 74
0
 95
11
 96
7
 40
0.0
 40
0.0
 40
0.0
 40
0.0
 40
1.0
 40
1.0
 40
1.0
 40
2.0
 40
2.0
 40
2.0
 40
2.0
 10
52.8236228975
 20
72.83366472
 42
1.0
 10
52.7588081199
 20
72.3444606829
 42
0.7889613615
 10
53.0716322602
 20
71.9628029794
 42
0.7889613615
 10
53.5640413762
 20
71.9303251759
 42
1.0
 10
54.0564504923
 20
71.8978473724
 42
0.7889613615
 10
54.4166925359
 20
72.2351116831
 42
0.7889613615
 10
54.4166925359
 20
72.7285907053
 42
1.0
 72
1
 10
54.4166925359
 20
97.8285907053
 11
54.4166925359
 21
72.7285907053
 72
4
 94
3
 73
1
 74
0
 95
8
 96
4
 40
0.0
 40
0.0
 40
0.0
 40
0.0
 40
1.0
 40
1.0
 40
1.0
 40
1.0
 10
54.4166925359
 20
97.8285907053
 42
1.0
 10
54.4166925359
 20
98.3557984991
 42
0.8047378541
 10
54.0439003298
 20
98.7285907053
 42
0.8047378541
 10
53.5166925359
 20
98.7285907053
 42
1.0
 72
1
 10
41.2166925359
 20
98.7285907053
 11
53.5166925359
 21
98.7285907053
 72
1
 10
41.2166925359
 20
100.3285907053
 11
41.2166925359
 21
98.7285907053
 72
1
 10
53.5166925359
 20
100.3285907053
 11
41.2166925359
 21
100.3285907053
 72
4
 94
3
 73
1
 74
0
 95
8
 96
4
 40
0.0
 40
0.0
 40
0.0
 40
0.0
 40
1.0
 40
1.0
 40
1.0
 40
1.0
 10
56.0166925359
 20
97.8285907053
 42
1.0
 10
56.0166925359
 20
99.2930567993
 42
0.8047378541
 10
54.98115863
 20
100.3285907053
 42
0.8047378541
 10
53.5166925359
 20
100.3285907053
 42
1.0
 72
1
 10
56.0166925359
 20
72.7285907053
 11
56.0166925359
 21
97.8285907053
 72
4
 94
3
 73
1
 74
0
 95
11
 96
7
 40
0.0
 40
0.0
 40
0.0
 40
0.0
 40
1.0
 40
1.0
 40
1.0
 40
2.0
 40
2.0
 40
2.0
 40
2.0
 10
51.2374836206
 20
73.0438127494
 42
1.0
 10
51.043039288
 20
71.5762006381
 42
0.7889613615
 10
51.9815117086
 20
70.4312275277
 42
0.7889613615
 10
53.4587390568
 20
70.3337941172
 42
1.0
 10
54.935966405
 20
70.2363607066
 42
0.7889613615
 10
56.0166925359
 20
71.2481536388
 42
0.7889613615
 10
56.0166925359
 20
72.7285907053
 42
1.0
 72
1
 10
51.8959014513
 20
78.0133686612
 11
51.2374836206
 21
73.0438127494
 72
4
 94
3
 73
1
 74
0
 95
8
 96
4
 40
0.0
 40
0.0
 40
0.0
 40
0.0
 40
1.0
 40
1.0
 40
1.0
 40
1.0
 10
51.8959014513
 20
78.0133686612
 42
1.0
 10
52.1004524618
 20
79.5572631857
 42
0.7726908141
 10
51.0740786213
 20
80.7285907053
 42
0.7726908141
 10
49.5166925359
 20
80.7285907053
 42
1.0
 72
1
 10
43.5166925359
 20
80.7285907053
 11
49.5166925359
 21
80.7285907053
 72
4
 94
3
 73
1
 74
0
 95
8
 96
4
 40
0.0
 40
0.0
 40
0.0
 40
0.0
 40
1.0
 40
1.0
 40
1.0
 40
1.0
 10
43.5166925359
 20
80.7285907053
 42
1.0
 10
42.1108050856
 20
80.7285907053
 42
0.8047378541
 10
41.1166925359
 20
79.7344781556
 42
0.8047378541
 10
41.1166925359
 20
78.3285907053
 42
1.0
 72
1
 10
41.1166925359
 20
43.3285907053
 11
41.1166925359
 21
78.3285907053
 72
4
 94
3
 73
1
 74
0
 95
8
 96
4
 40
0.0
 40
0.0
 40
0.0
 40
0.0
 40
1.0
 40
1.0
 40
1.0
 40
1.0
 10
38.1166925359
 20
40.3285907053
 42
1.0
 10
39.8740518488
 20
40.3285907053
 42
0.8047378541
 10
41.1166925359
 20
41.5712313924
 42
0.8047378541
 10
41.1166925359
 20
43.3285907053
 42
1.0
 72
1
 10
14.1166925359
 20
40.3285907053
 11
38.1166925359
 21
40.3285907053
 72
4
 94
3
 73
1
 74
0
 95
8
 96
4
 40
0.0
 40
0.0
 40
0.0
 40
0.0
 40
1.0
 40
1.0
 40
1.0
 40
1.0
 10
11.1166925359
 20
43.3285907053
 42
1.0
 10
11.1166925359
 20
41.5712313924
 42
0.8047378541
 10
12.3593332231
 20
40.3285907053
 42
0.8047378541
 10
14.1166925359
 20
40.3285907053
 42
1.0
 97
0
 75
0
 76
0
 52
45.0
 41
100.0
 77
0
 78
1
 53
45.0
 43
0.0
 44
0.0
 45
-70.7106781187
 46
70.7106781187
 79
0
 98
1
 10
0.0
 20
0.0
  0
HATCH
  5
216
100
AcDbEntity
  8
0
100
AcDbHatch
 62
2
  6
CONTINUOUS
 10
0.0
 20
0.0
 30
0.0
210
0.0
220
0.0
230
1.0
  2
default__4
 70
0
 71
0
 91
1
 92
1
 93
13
 72
1
 10
53.1166925359
 20
67.3285907053
 11
44.6166925359
 21
67.3285907053
 72
4
 94
3
 73
1
 74
0
 95
8
 96
4
 40
0.0
 40
0.0
 40
0.0
 40
0.0
 40
1.0
 40
1.0
 40
1.0
 40
1.0
 10
44.6166925359
 20
67.3285907053
 42
1.0
 10
44.3237993171
 20
67.3285907053
 42
0.8047378541
 10
44.1166925359
 20
67.1214839241
 42
0.8047378541
 10
44.1166925359
 20
66.8285907053
 42
1.0
 72
1
 10
44.1166925359
 20
66.8285907053
 11
44.1166925359
 21
57.3285907053
 72
1
 10
42.1166925359
 20
55.3285907053
 11
44.1166925359
 21
57.3285907053
 72
1
 10
42.1166925359
 20
55.3285907053
 11
41.1166925359
 21
55.3285907053
 72
1
 10
41.1166925359
 20
66.8285907053
 11
41.1166925359
 21
55.3285907053
 72
4
 94
3
 73
1
 74
0
 95
8
 96
4
 40
0.0
 40
0.0
 40
0.0
 40
0.0
 40
1.0
 40
1.0
 40
1.0
 40
1.0
 10
44.6166925359
 20
70.3285907053
 42
1.0
 10
42.5664400042
 20
70.3285907053
 42
0.8047378541
 10
41.1166925359
 20
68.878843237
 42
0.8047378541
 10
41.1166925359
 20
66.8285907053
 42
1.0
 72
1
 10
53.1166925359
 20
70.3285907053
 11
44.6166925359
 21
70.3285907053
 72
4
 94
3
 73
1
 74
0
 95
8
 96
4
 40
0.0
 40
0.0
 40
0.0
 40
0.0
 40
1.0
 40
1.0
 40
1.0
 40
1.0
 10
55.8467916271
 20
69.0186954865
 42
1.0
 10
55.1708458512
 20
69.8613030932
 42
0.9343961371
 10
54.1969194893
 20
70.3285907053
 42
0.9343961371
 10
53.1166925359
 20
70.3285907053
 42
1.0
 72
1
 10
57.7300270718
 20
66.6711277262
 11
55.8467916271
 21
69.0186954865
 72
1
 10
57.7300270718
 20
66.6711277262
 11
55.3899421365
 21
64.7938950566
 72
1
 10
55.3899421365
 20
64.7938950566
 11
53.5067066918
 21
67.1414628169
 72
4
 94
3
 73
1
 74
0
 95
8
 96
4
 40
0.0
 40
0.0
 40
0.0
 40
0.0
 40
1.0
 40
1.0
 40
1.0
 40
1.0
 10
53.5067066918
 20
67.1414628169
 42
1.0
 10
53.4101430095
 20
67.2618353321
 42
0.9343961371
 10
53.2710106721
 20
67.3285907053
 42
0.9343961371
 10
53.1166925359
 20
67.3285907053
 42
1.0
 97
0
 75
0
 76
0
 52
135.0
 41
100.0
 77
0
 78
1
 53
135.0
 43
0.0
 44
0.0
 45
-70.7106781187
 46
-70.7106781187
 79
0
 98
1
 10
0.0
 20
0.0
  0
LINE
  5
217
100
AcDbEntity
  8
0
100
AcDbLine
 62
7
  6
CONTINUOUS
 10
11.1166925359
 20
55.3285907053
 11
11.1166925359
 21
43.3285907053
  0
LINE
  5
218
100
AcDbEntity
  8
0
100
AcDbLine
 62
7
  6
CONTINUOUS
 10
12.7166925359
 20
43.3285907053
 11
12.7166925359
 21
55.3285907053
  0
LINE
  5
219
100
AcDbEntity
  8
A_RUNDUNGEN
100
AcDbLine
 62
7
  6
CONTINUOUS
 10
16.7666925359
 20
54.2464037391
 11
16.7666925359
 21
53.6107776722
  0
LINE
  5
21A
100
AcDbEntity
  8
A_RUNDUNGEN
100
AcDbLine
 62
7
  6
CONTINUOUS
 10
17.8666925359
 20
48.0712313924
 11
17.8666925359
 21
51.0723546564
  0
LINE
  5
21B
100
AcDbEntity
  8
A_RUNDUNGEN
100
AcDbLine
 62
7
  6
CONTINUOUS
 10
17.8666925359
 20
56.7848178972
 11
17.8666925359
 21
59.7859500181
  0
LINE
  5
21C
100
AcDbEntity
  8
A_RUNDUNGEN
100
AcDbLine
 62
7
  6
CONTINUOUS
 10
19.2666925359
 20
65.6285907053
 11
19.2666925359
 21
41.9285907053
  0
LINE
  5
21D
100
AcDbEntity
  8
0
100
AcDbLine
 62
7
  6
CONTINUOUS
 10
21.2666925359
 20
67.1285907053
 11
21.2666925359
 21
65.9285907053
  0
LINE
  5
21E
100
AcDbEntity
  8
0
100
AcDbLine
 62
7
  6
CONTINUOUS
 10
24.6986925359
 20
67.1285907053
 11
24.6986925359
 21
69.1285907053
  0
LINE
  5
21F
100
AcDbEntity
  8
0
100
AcDbLine
 62
7
  6
CONTINUOUS
 10
27.081365465
 20
67.3134354508
 11
27.081365465
 21
69.3678982732
  0
LINE
  5
220
100
AcDbEntity
  8
A_RUNDUNGEN
100
AcDbLine
 62
7
  6
CONTINUOUS
 10
18.9737993171
 20
45.7214839241
 11
18.7453721924
 21
45.9499110488
  0
LINE
  5
221
100
AcDbEntity
  8
0
100
AcDbLine
 62
7
  6
CONTINUOUS
 10
37.5166925359
 20
43.9285907053
 11
37.5166925359
 21
70.9285907053
  0
LINE
  5
222
100
AcDbEntity
  8
0
100
AcDbLine
 62
7
  6
CONTINUOUS
 10
39.5166925359
 20
43.3285907053
 11
39.5166925359
 21
78.3285907053
  0
LINE
  5
223
100
AcDbEntity
  8
A_RUNDUNGEN
100
AcDbLine
 62
7
  6
CONTINUOUS
 10
18.7453721924
 20
61.9072703617
 11
18.9737993171
 21
62.1356974865
  0
LINE
  5
224
100
AcDbEntity
  8
0
100
AcDbLine
 62
7
  6
CONTINUOUS
 10
28.8820771513
 20
70.0516676283
 11
29.6513079206
 21
68.2055137822
  0
LINE
  5
225
100
AcDbEntity
  8
0
100
AcDbLine
 62
7
  6
CONTINUOUS
 10
41.1166925359
 20
43.3285907053
 11
41.1166925359
 21
78.3285907053
  0
LINE
  5
226
100
AcDbEntity
  8
0
100
AcDbLine
 62
7
  6
CONTINUOUS
 10
41.2166925359
 20
100.3285907053
 11
41.2166925359
 21
98.7285907053
  0
LINE
  5
227
100
AcDbEntity
  8
0
100
AcDbLine
 62
7
  6
CONTINUOUS
 10
44.1166925359
 20
66.8285907053
 11
44.1166925359
 21
57.3285907053
  0
LINE
  5
228
100
AcDbEntity
  8
A_RUNDUNGEN
100
AcDbLine
 62
7
  6
CONTINUOUS
 10
18.0802598697
 20
50.8777368383
 11
19.2666925359
 21
49.9285907053
  0
LINE
  5
229
100
AcDbEntity
  8
A_ACHSEN
100
AcDbLine
 62
7
  6
CONTINUOUS
 10
50.3197581102
 20
60.7265576058
 11
50.2426160659
 21
60.0236713383
  0
LINE
  5
22A
100
AcDbEntity
  8
0
100
AcDbLine
 62
7
  6
CONTINUOUS
 10
51.8959014513
 20
78.0133686612
 11
51.2374836206
 21
73.0438127494
  0
LINE
  5
22B
100
AcDbEntity
  8
0
100
AcDbLine
 62
7
  6
CONTINUOUS
 10
52.8236228975
 20
72.83366472
 11
53.4820407282
 21
77.8032206317
  0
LINE
  5
22C
100
AcDbEntity
  8
A_RUNDUNGEN
100
AcDbLine
 62
7
  6
CONTINUOUS
 10
19.2666925359
 20
57.9285907053
 11
18.0802598697
 21
56.9794445723
  0
LINE
  5
22D
100
AcDbEntity
  8
0
100
AcDbLine
 62
7
  6
CONTINUOUS
 10
54.4166925359
 20
97.8285907053
 11
54.4166925359
 21
72.7285907053
  0
LINE
  5
22E
100
AcDbEntity
  8
0
100
AcDbLine
 62
7
  6
CONTINUOUS
 10
56.0166925359
 20
72.7285907053
 11
56.0166925359
 21
97.8285907053
  0
LINE
  5
22F
100
AcDbEntity
  8
0
100
AcDbLine
 62
7
  6
CONTINUOUS
 10
64.9258671026
 20
49.2450010094
 11
64.9008186704
 21
50.0710622272
  0
LINE
  5
230
100
AcDbEntity
  8
0
100
AcDbLine
 62
7
  6
CONTINUOUS
 10
60.8347171787
 20
48.6423117766
 11
61.5095720431
 21
50.87843865
  0
LINE
  5
231
100
AcDbEntity
  8
0
100
AcDbLine
 62
7
  6
CONTINUOUS
 10
52.1093357127
 20
62.6658975167
 11
49.4420229083
 21
59.831765892
  0
LINE
  5
232
100
AcDbEntity
  8
0
100
AcDbLine
 62
7
  6
CONTINUOUS
 10
42.1166925359
 20
55.3285907053
 11
44.1166925359
 21
57.3285907053
  0
LINE
  5
233
100
AcDbEntity
  8
0
100
AcDbLine
 62
7
  6
CONTINUOUS
 10
50.9390464316
 20
64.7488681327
 11
53.6691455227
 21
66.9389729139
  0
LINE
  5
234
100
AcDbEntity
  8
A_ACHSEN
100
AcDbLine
 62
7
  6
CONTINUOUS
 10
56.8993235203
 20
68.8892421528
 11
56.3221025696
 21
68.4261914276
  0
LINE
  5
235
100
AcDbEntity
  8
0
100
AcDbLine
 62
7
  6
CONTINUOUS
 10
27.9590002282
 20
69.6670522437
 11
28.8820771513
 21
70.0516676283
  0
LINE
  5
236
100
AcDbEntity
  8
0
100
AcDbLine
 62
7
  6
CONTINUOUS
 10
28.7282309975
 20
67.8208983976
 11
29.6513079206
 21
68.2055137822
  0
LINE
  5
237
100
AcDbEntity
  8
0
100
AcDbLine
 62
7
  6
CONTINUOUS
 10
81.8082337857
 20
25.7530595944
 11
84.2854224852
 21
25.7530595818
  0
LINE
  5
238
100
AcDbEntity
  8
0
100
AcDbLine
 62
7
  6
CONTINUOUS
 10
88.5939454789
 20
25.7530595601
 11
181.8082337857
 21
25.7530590887
  0
LINE
  5
239
100
AcDbEntity
  8
0
100
AcDbLine
 62
7
  6
CONTINUOUS
 10
60.0528392361
 20
44.7547766278
 11
60.0593786357
 21
44.7488908748
  0
LINE
  5
23A
100
AcDbEntity
  8
0
100
AcDbLine
 62
7
  6
CONTINUOUS
 10
49.4516671096
 20
59.5137140261
 11
49.7949525002
 21
59.1906346356
  0
LINE
  5
23B
100
AcDbEntity
  8
A_ACHSEN
100
AcDbLine
 62
7
  6
CONTINUOUS
 10
53.3713371819
 20
56.1235297796
 11
50.2426160659
 21
60.0236713383
  0
LINE
  5
23C
100
AcDbEntity
  8
A_ACHSEN
100
AcDbLine
 62
7
  6
CONTINUOUS
 10
54.0742234494
 20
56.0463877353
 11
50.3197581102
 21
60.7265576058
  0
LINE
  5
23D
100
AcDbEntity
  8
0
100
AcDbLine
 62
7
  6
CONTINUOUS
 10
61.332248684
 20
51.7931080856
 11
56.4143083846
 21
57.9236204049
  0
LINE
  5
23E
100
AcDbEntity
  8
0
100
AcDbLine
 62
7
  6
CONTINUOUS
 10
52.6598430454
 20
62.6037902754
 11
50.9390464316
 21
64.7488681327
  0
LINE
  5
23F
100
AcDbEntity
  8
0
100
AcDbLine
 62
7
  6
CONTINUOUS
 10
70.7113218904
 20
35.7576538242
 11
70.8155700918
 21
35.5891040531
  0
LINE
  5
240
100
AcDbEntity
  8
0
100
AcDbLine
 62
7
  6
CONTINUOUS
 10
70.0454849278
 20
35.3500396476
 11
70.4627477862
 21
21.5893115495
  0
LINE
  5
241
100
AcDbEntity
  8
0
100
AcDbLine
 62
7
  6
CONTINUOUS
 10
71.8178956465
 20
21.6304033337
 11
71.4006327881
 21
35.3911314319
  0
LINE
  5
242
100
AcDbEntity
  8
A_ACHSEN
100
AcDbLine
 62
7
  6
CENTER
 10
70.4082338868
 20
45.753059652
 11
70.4082338868
 21
15.753059652
  0
LINE
  5
243
100
AcDbEntity
  8
A_ACHSEN
100
AcDbLine
 62
7
  6
CENTER
 10
70.4082338868
 20
45.753059652
 11
70.4082338868
 21
75.753059652
  0
LINE
  5
244
100
AcDbEntity
  8
0
100
AcDbLine
 62
7
  6
CONTINUOUS
 10
63.5547302279
 20
38.4709248278
 11
63.5092621519
 21
38.2780275315
  0
LINE
  5
245
100
AcDbEntity
  8
0
100
AcDbLine
 62
7
  6
CONTINUOUS
 10
64.1854480265
 20
47.631073533
 11
64.8603028909
 21
49.8672004064
  0
LINE
  5
246
100
AcDbEntity
  8
0
100
AcDbLine
 62
7
  6
CONTINUOUS
 10
37.5166925359
 20
43.9285907053
 11
35.5166925359
 21
41.9285907053
  0
LINE
  5
247
100
AcDbEntity
  8
0
100
AcDbLine
 62
7
  6
CONTINUOUS
 10
62.4438286652
 20
70.9467043293
 11
59.9853443323
 21
68.9174304595
  0
LINE
  5
248
100
AcDbEntity
  8
A_ACHSEN
100
AcDbLine
 62
7
  6
CONTINUOUS
 10
57.5350199938
 20
66.5146916704
 11
50.3197581102
 21
60.7265576058
  0
LINE
  5
249
100
AcDbEntity
  8
0
100
AcDbLine
 62
7
  6
CONTINUOUS
 10
52.6598430454
 20
62.6037902754
 11
57.5350199938
 21
66.5146916704
  0
LINE
  5
24A
100
AcDbEntity
  8
0
100
AcDbLine
 62
2
  6
CONTINUOUS
 10
50.3677649105
 20
59.867665676
 11
56.9980055604
 21
65.1864915732
  0
LINE
  5
24B
100
AcDbEntity
  8
A_ACHSEN
100
AcDbLine
 62
7
  6
CENTER
 10
50.2469200004
 20
56.8221121125
 11
64.7845619708
 21
68.4843112211
  0
LINE
  5
24C
100
AcDbEntity
  8
0
100
AcDbLine
 62
2
  6
CONTINUOUS
 10
53.2461883372
 20
56.2795354419
 11
59.8764289871
 21
61.5983613391
  0
LINE
  5
24D
100
AcDbEntity
  8
0
100
AcDbLine
 62
7
  6
CONTINUOUS
 10
81.8082338034
 20
29.2530595944
 11
86.9314429832
 21
29.2530595685
  0
LINE
  5
24E
100
AcDbEntity
  8
0
100
AcDbLine
 62
7
  6
CONTINUOUS
 10
91.8603112991
 20
29.2530595435
 11
100.3082338034
 21
29.2530595008
  0
LINE
  5
24F
100
AcDbEntity
  8
0
100
AcDbLine
 62
7
  6
CONTINUOUS
 10
77.690368711
 20
38.8995559931
 11
77.8832660073
 21
38.8540879171
  0
LINE
  5
250
100
AcDbEntity
  8
0
100
AcDbLine
 62
7
  6
CONTINUOUS
 10
60.2382715827
 20
45.5438159313
 11
60.412828059
 21
45.4499716484
  0
LINE
  5
251
100
AcDbEntity
  8
0
100
AcDbLine
 62
7
  6
CONTINUOUS
 10
77.5077776279
 20
38.1405114133
 11
87.5331311769
 21
28.7052566578
  0
LINE
  5
252
100
AcDbEntity
  8
0
100
AcDbLine
 62
7
  6
CONTINUOUS
 10
51.0572849501
 20
63.9649992196
 11
52.0996915115
 21
62.9839493825
  0
LINE
  5
253
100
AcDbEntity
  8
A_RUNDUNGEN
100
AcDbLine
 62
7
  6
CONTINUOUS
 10
52.0996915115
 20
62.9839493825
 11
52.5755100961
 21
62.5361377875
  0
LINE
  5
254
100
AcDbEntity
  8
0
100
AcDbLine
 62
7
  6
CONTINUOUS
 10
52.4273875786
 20
62.6755417179
 11
52.5755100961
 21
62.5361377875
  0
LINE
  5
255
100
AcDbEntity
  8
0
100
AcDbLine
 62
7
  6
CONTINUOUS
 10
88.4623091392
 20
29.6925471786
 11
78.4369555902
 21
39.1278019341
  0
LINE
  5
256
100
AcDbEntity
  8
0
100
AcDbLine
 62
7
  6
CONTINUOUS
 10
64.0623477751
 20
53.9832128668
 11
59.1444074757
 21
60.1137251861
  0
LINE
  5
257
100
AcDbEntity
  8
0
100
AcDbLine
 62
7
  6
CONTINUOUS
 10
55.3899421365
 20
64.7938950566
 11
53.5067066918
 21
67.1414628169
  0
LINE
  5
258
100
AcDbEntity
  8
0
100
AcDbLine
 62
7
  6
CONTINUOUS
 10
56.5599846042
 20
65.7325113914
 11
60.3144499434
 21
61.0523415209
  0
LINE
  5
259
100
AcDbEntity
  8
0
100
AcDbLine
 62
7
  6
CONTINUOUS
 10
64.4567774712
 20
58.2858233749
 11
62.8924169132
 21
60.2358941542
  0
LINE
  5
25A
100
AcDbEntity
  8
A_ACHSEN
100
AcDbLine
 62
7
  6
CONTINUOUS
 10
62.8924169132
 20
60.2358941542
 11
56.3221025696
 21
68.4261914276
  0
LINE
  5
25B
100
AcDbEntity
  8
0
100
AcDbLine
 62
7
  6
CONTINUOUS
 10
56.3221025696
 20
68.4261914276
 11
55.8467916271
 21
69.0186954865
  0
LINE
  5
25C
100
AcDbEntity
  8
A_ACHSEN
100
AcDbLine
 62
7
  6
CONTINUOUS
 10
63.4696378639
 20
60.6989448794
 11
56.8993235203
 21
68.8892421528
  0
LINE
  5
25D
100
AcDbEntity
  8
0
100
AcDbLine
 62
7
  6
CONTINUOUS
 10
64.3876166312
 20
53.7375551189
 11
66.4948326706
 21
50.9429817055
  0
LINE
  5
25E
100
AcDbEntity
  8
0
100
AcDbLine
 62
7
  6
CONTINUOUS
 10
78.4364963622
 20
39.1365825686
 11
78.4360341641
 21
39.1453684783
  0
LINE
  5
25F
100
AcDbEntity
  8
0
100
AcDbLine
 62
7
  6
CONTINUOUS
 10
74.6841687892
 20
72.3485543082
 11
71.9350790798
 21
70.1273991739
  0
LINE
  5
260
100
AcDbEntity
  8
A_ACHSEN
100
AcDbLine
 62
7
  6
CONTINUOUS
 10
61.289485333
 20
61.8345217999
 11
54.0742234494
 21
56.0463877353
  0
LINE
  5
261
100
AcDbEntity
  8
0
100
AcDbLine
 62
7
  6
CONTINUOUS
 10
56.4143083846
 20
57.9236204049
 11
59.1444074757
 21
60.1137251861
  0
LINE
  5
262
100
AcDbEntity
  8
A_ACHSEN
100
AcDbLine
 62
7
  6
CONTINUOUS
 10
63.4696378639
 20
60.6989448794
 11
62.8924169132
 21
60.2358941542
  0
LINE
  5
263
100
AcDbEntity
  8
0
100
AcDbLine
 62
7
  6
CONTINUOUS
 10
63.2052890248
 20
59.8458799984
 11
60.8652040895
 21
57.9686473288
  0
LINE
  5
264
100
AcDbEntity
  8
0
100
AcDbLine
 62
7
  6
CONTINUOUS
 10
64.4567774712
 20
58.2858233749
 11
62.1166925359
 21
56.4085907053
  0
LINE
  5
265
100
AcDbEntity
  8
0
100
AcDbLine
 62
7
  6
CONTINUOUS
 10
63.7917568034
 20
37.7247971766
 11
63.8005427131
 21
37.7252593746
  0
LINE
  5
266
100
AcDbEntity
  8
0
100
AcDbLine
 62
7
  6
CONTINUOUS
 10
14.1166925359
 20
40.3285907053
 11
38.1166925359
 21
40.3285907053
  0
LINE
  5
267
100
AcDbEntity
  8
0
100
AcDbLine
 62
7
  6
CONTINUOUS
 10
80.5781961909
 20
45.9623033727
 11
80.4036397146
 21
46.0561476556
  0
LINE
  5
268
100
AcDbEntity
  8
0
100
AcDbLine
 62
7
  6
CONTINUOUS
 10
80.7636285375
 20
46.7513426763
 11
80.7570891378
 21
46.7572284292
  0
LINE
  5
269
100
AcDbEntity
  8
A_RUNDUNGEN
100
AcDbLine
 62
7
  6
CONTINUOUS
 10
56.2693037492
 20
68.8531274973
 11
56.2591215307
 21
68.8626192165
  0
LINE
  5
26A
100
AcDbEntity
  8
A_RUNDUNGEN
100
AcDbLine
 62
7
  6
CONTINUOUS
 10
60.9614832455
 20
67.7568312311
 11
61.7487937268
 21
66.7754007315
  0
LINE
  5
26B
100
AcDbEntity
  8
A_ACHSEN
100
AcDbLine
 62
7
  6
CONTINUOUS
 10
63.9805501972
 20
63.9933802714
 11
60.2261504808
 21
68.673468339
  0
LINE
  5
26C
100
AcDbEntity
  8
0
100
AcDbLine
 62
7
  6
CONTINUOUS
 10
62.4202544382
 20
71.4136520429
 11
62.5043592542
 21
71.2584673864
  0
LINE
  5
26D
100
AcDbEntity
  8
0
100
AcDbLine
 62
7
  6
CONTINUOUS
 10
77.7474408502
 20
38.7097679962
 11
77.690368711
 21
38.8995559931
  0
LINE
  5
26E
100
AcDbEntity
  8
0
100
AcDbLine
 62
7
  6
CONTINUOUS
 10
81.8082339879
 20
65.7530595944
 11
81.8082339702
 21
62.2530595944
  0
LINE
  5
26F
100
AcDbEntity
  8
0
100
AcDbLine
 62
7
  6
CONTINUOUS
 10
81.8082338034
 20
29.2530595944
 11
81.8082337857
 21
25.7530595944
  0
LINE
  5
270
100
AcDbEntity
  8
0
100
AcDbLine
 62
7
  6
CONTINUOUS
 10
77.2617375457
 20
53.0351944762
 11
77.3072056217
 21
53.2280917725
  0
LINE
  5
271
100
AcDbEntity
  8
0
100
AcDbLine
 62
7
  6
CONTINUOUS
 10
46.2855775685
 20
44.3433978923
 11
60.0463056666
 21
44.7606607507
  0
LINE
  5
272
100
AcDbEntity
  8
0
100
AcDbLine
 62
7
  6
CONTINUOUS
 10
80.8112538912
 20
45.390310693
 11
94.5719819893
 21
45.8075735515
  0
LINE
  5
273
100
AcDbEntity
  8
0
100
AcDbLine
 62
7
  6
CONTINUOUS
 10
94.5308902051
 20
47.1627214117
 11
80.7701621069
 21
46.7454585533
  0
LINE
  5
274
100
AcDbEntity
  8
0
100
AcDbLine
 62
7
  6
CONTINUOUS
 10
60.0052138824
 20
46.115808611
 11
46.2444857843
 21
45.6985457526
  0
LINE
  5
275
100
AcDbEntity
  8
0
100
AcDbLine
 62
7
  6
CONTINUOUS
 10
38.1166925359
 20
41.9285907053
 11
35.5166925359
 21
41.9285907053
  0
LINE
  5
276
100
AcDbEntity
  8
0
100
AcDbLine
 62
7
  6
CONTINUOUS
 10
19.2666925359
 20
41.9285907053
 11
14.1166925359
 21
41.9285907053
  0
LINE
  5
277
100
AcDbEntity
  8
A_RUNDUNGEN
100
AcDbLine
 62
7
  6
CONTINUOUS
 10
19.2666925359
 20
41.9285907053
 11
35.5166925359
 21
41.9285907053
  0
LINE
  5
278
100
AcDbEntity
  8
A_ACHSEN
100
AcDbLine
 62
7
  6
CENTER
 10
70.4082338868
 20
45.753059652
 11
40.4082338868
 21
45.753059652
  0
LINE
  5
279
100
AcDbEntity
  8
A_ACHSEN
100
AcDbLine
 62
7
  6
CENTER
 10
70.4082338868
 20
45.753059652
 11
100.4082338868
 21
45.753059652
  0
LINE
  5
27A
100
AcDbEntity
  8
0
100
AcDbLine
 62
7
  6
CONTINUOUS
 10
37.0166925359
 20
45.9285907053
 11
39.5166925359
 21
45.9285907053
  0
LINE
  5
27B
100
AcDbEntity
  8
0
100
AcDbLine
 62
7
  6
CONTINUOUS
 10
70.6174776075
 20
35.5830973479
 11
70.7113218904
 21
35.7576538242
  0
LINE
  5
27C
100
AcDbEntity
  8
0
100
AcDbLine
 62
7
  6
CONTINUOUS
 10
64.7355905548
 20
42.7897645895
 11
65.7502560631
 21
43.8678892103
  0
LINE
  5
27D
100
AcDbEntity
  8
0
100
AcDbLine
 62
7
  6
CONTINUOUS
 10
72.0077150843
 20
50.5167016305
 11
73.0223805927
 21
51.5948262513
  0
LINE
  5
27E
100
AcDbEntity
  8
0
100
AcDbLine
 62
7
  6
CONTINUOUS
 10
86.4687463602
 20
63.8071349044
 11
77.0334916047
 21
53.7817813554
  0
LINE
  5
27F
100
AcDbEntity
  8
0
100
AcDbLine
 62
7
  6
CONTINUOUS
 10
62.7956856481
 20
38.6535159109
 11
53.3604308926
 21
28.6281623619
  0
LINE
  5
280
100
AcDbEntity
  8
0
100
AcDbLine
 62
7
  6
CONTINUOUS
 10
54.3477214134
 20
27.6989843996
 11
63.7829761689
 21
37.7243379486
  0
LINE
  5
281
100
AcDbEntity
  8
0
100
AcDbLine
 62
7
  6
CONTINUOUS
 10
78.0207821255
 20
52.8526033931
 11
87.456036881
 21
62.8779569421
  0
LINE
  5
282
100
AcDbEntity
  8
0
100
AcDbLine
 62
7
  6
CONTINUOUS
 10
60.412828059
 20
45.4499716484
 11
60.2442782878
 21
45.345723447
  0
LINE
  5
283
100
AcDbEntity
  8
0
100
AcDbLine
 62
7
  6
CONTINUOUS
 10
66.4447819718
 20
51.0093585504
 11
65.0306428521
 21
50.9664779901
  0
LINE
  5
284
100
AcDbEntity
  8
A_ACHSEN
100
AcDbLine
 62
7
  6
CENTER
 10
22.6366925359
 20
53.9285907053
 11
13.8866925359
 21
53.9285907053
  0
LINE
  5
285
100
AcDbEntity
  8
A_ACHSEN
100
AcDbLine
 62
7
  6
CONTINUOUS
 10
54.0742234494
 20
56.0463877353
 11
53.3713371819
 21
56.1235297796
  0
LINE
  5
286
100
AcDbEntity
  8
0
100
AcDbLine
 62
7
  6
CONTINUOUS
 10
92.8082337857
 20
25.7530595387
 11
92.8082338034
 21
29.2530595387
  0
LINE
  5
287
100
AcDbEntity
  8
0
100
AcDbLine
 62
7
  6
CONTINUOUS
 10
92.8082339702
 20
62.2530595387
 11
92.8082339879
 21
65.7530595387
  0
LINE
  5
288
100
AcDbEntity
  8
0
100
AcDbLine
 62
7
  6
CONTINUOUS
 10
71.406516911
 20
35.3976650013
 11
71.412402664
 21
35.404204401
  0
LINE
  5
289
100
AcDbEntity
  8
0
100
AcDbLine
 62
7
  6
CONTINUOUS
 10
77.4515255426
 20
53.0922666155
 11
77.2617375457
 21
53.0351944762
  0
LINE
  5
28A
100
AcDbEntity
  8
0
100
AcDbLine
 62
7
  6
CONTINUOUS
 10
77.0247109702
 20
53.7813221274
 11
77.0159250605
 21
53.7808599294
  0
LINE
  5
28B
100
AcDbEntity
  8
0
100
AcDbLine
 62
7
  6
CONTINUOUS
 10
42.1166925359
 20
55.3285907053
 11
41.1166925359
 21
55.3285907053
  0
LINE
  5
28C
100
AcDbEntity
  8
0
100
AcDbLine
 62
7
  6
CONTINUOUS
 10
12.7166925359
 20
55.3285907053
 11
11.1166925359
 21
55.3285907053
  0
LINE
  5
28D
100
AcDbEntity
  8
0
100
AcDbLine
 62
7
  6
CONTINUOUS
 10
100.3082339702
 20
62.2530595008
 11
100.3082338034
 21
29.2530595008
  0
LINE
  5
28E
100
AcDbEntity
  8
0
100
AcDbLine
 62
7
  6
CONTINUOUS
 10
80.4036397146
 20
46.0561476556
 11
80.5721894857
 21
46.160395857
  0
LINE
  5
28F
100
AcDbEntity
  8
A_ACHSEN
100
AcDbLine
 62
7
  6
CENTER
 10
39.1166925359
 20
61.5285907053
 11
46.1166925359
 21
61.5285907053
  0
LINE
  5
290
100
AcDbEntity
  8
0
100
AcDbLine
 62
7
  6
CONTINUOUS
 10
81.8082339702
 20
62.2530595944
 11
84.987675386
 21
62.2530595783
  0
LINE
  5
291
100
AcDbEntity
  8
0
100
AcDbLine
 62
7
  6
CONTINUOUS
 10
86.8863908979
 20
62.2530595687
 11
88.3055150144
 21
62.2530595615
  0
LINE
  5
292
100
AcDbEntity
  8
0
100
AcDbLine
 62
7
  6
CONTINUOUS
 10
91.8799147877
 20
62.2530595434
 11
100.3082339702
 21
62.2530595008
  0
LINE
  5
293
100
AcDbEntity
  8
0
100
AcDbLine
 62
7
  6
CONTINUOUS
 10
81.8082339879
 20
65.7530595944
 11
84.3304398871
 21
65.7530595816
  0
LINE
  5
294
100
AcDbEntity
  8
0
100
AcDbLine
 62
7
  6
CONTINUOUS
 10
88.6369742936
 20
65.7530595598
 11
181.8082339879
 21
65.7530590887
  0
LINE
  5
295
100
AcDbEntity
  8
0
100
AcDbLine
 62
7
  6
CONTINUOUS
 10
84.317525348
 20
65.7630595817
 11
81.808233988
 21
65.7630595944
  0
LINE
  5
296
100
AcDbEntity
  8
A_RUNDUNGEN
100
AcDbLine
 62
7
  6
CONTINUOUS
 10
19.2795733811
 20
65.9285907053
 11
37.5166925359
 21
65.9285907053
  0
LINE
  5
297
100
AcDbEntity
  8
0
100
AcDbLine
 62
7
  6
CONTINUOUS
 10
63.364942231
 20
38.4138526886
 11
63.5547302279
 21
38.4709248278
  0
LINE
  5
298
100
AcDbEntity
  8
0
100
AcDbLine
 62
7
  6
CONTINUOUS
 10
21.2666925359
 20
67.1285907053
 11
25.2666925359
 21
67.1285907053
  0
LINE
  5
299
100
AcDbEntity
  8
0
100
AcDbLine
 62
7
  6
CONTINUOUS
 10
53.1166925359
 20
67.3285907053
 11
44.6166925359
 21
67.3285907053
  0
LINE
  5
29A
100
AcDbEntity
  8
A_RUNDUNGEN
100
AcDbLine
 62
7
  6
CONTINUOUS
 10
22.7666925359
 20
69.1285907053
 11
24.6986925359
 21
69.1285907053
  0
LINE
  5
29B
100
AcDbEntity
  8
0
100
AcDbLine
 62
7
  6
CONTINUOUS
 10
24.6986925359
 20
69.1285907053
 11
25.2666925359
 21
69.1285907053
  0
LINE
  5
29C
100
AcDbEntity
  8
0
100
AcDbLine
 62
7
  6
CONTINUOUS
 10
53.1166925359
 20
70.3285907053
 11
44.6166925359
 21
70.3285907053
  0
LINE
  5
29D
100
AcDbEntity
  8
0
100
AcDbLine
 62
7
  6
CONTINUOUS
 10
37.5166925359
 20
70.9285907053
 11
39.5166925359
 21
70.9285907053
  0
LINE
  5
29E
100
AcDbEntity
  8
0
100
AcDbLine
 62
7
  6
CONTINUOUS
 10
43.5166925359
 20
80.7285907053
 11
49.5166925359
 21
80.7285907053
  0
LINE
  5
29F
100
AcDbEntity
  8
0
100
AcDbLine
 62
7
  6
CONTINUOUS
 10
49.5166925359
 20
82.3285907053
 11
43.5166925359
 21
82.3285907053
  0
LINE
  5
2A0
100
AcDbEntity
  8
0
100
AcDbLine
 62
7
  6
CONTINUOUS
 10
41.2166925359
 20
98.7285907053
 11
53.5166925359
 21
98.7285907053
  0
LINE
  5
2A1
100
AcDbEntity
  8
0
100
AcDbLine
 62
7
  6
CONTINUOUS
 10
53.5166925359
 20
100.3285907053
 11
41.2166925359
 21
100.3285907053
  0
LINE
  5
2A2
100
AcDbEntity
  8
0
100
AcDbLine
 62
7
  6
CONTINUOUS
 10
181.8082337857
 20
25.7530590887
 11
181.8082339879
 21
65.7530590887
  0
ARC
  5
2A3
100
AcDbEntity
  8
A_RUNDUNGEN
100
AcDbCircle
 62
7
  6
CONTINUOUS
 10
20.2666925359
 20
54.2464037391
 40
3.5
100
AcDbArc
 50
128.6598082489
 51
180.0000000144
  0
ARC
  5
2A4
100
AcDbEntity
  8
A_RUNDUNGEN
100
AcDbCircle
 62
7
  6
CONTINUOUS
 10
20.2666925359
 20
53.6107776715
 40
3.5
100
AcDbArc
 50
179.999999978
 51
231.3401917501
  0
ARC
  5
2A5
100
AcDbEntity
  8
A_RUNDUNGEN
100
AcDbCircle
 62
7
  6
CONTINUOUS
 10
20.8666925359
 20
48.0712313924
 40
3.0
100
AcDbArc
 50
180.0
 51
225.0
  0
ARC
  5
2A6
100
AcDbEntity
  8
0
100
AcDbCircle
 62
7
  6
CONTINUOUS
 10
38.1166925359
 20
43.3285907053
 40
3.0
100
AcDbArc
 50
270.0
 51
360.0
  0
ARC
  5
2A7
100
AcDbEntity
  8
0
100
AcDbCircle
 62
7
  6
CONTINUOUS
 10
14.1166925359
 20
43.3285907053
 40
3.0
100
AcDbArc
 50
180.0
 51
270.0
  0
ARC
  5
2A8
100
AcDbEntity
  8
0
100
AcDbCircle
 62
7
  6
CONTINUOUS
 10
14.1166925359
 20
43.3285907053
 40
1.4
100
AcDbArc
 50
180.0
 51
270.0
  0
ARC
  5
2A9
100
AcDbEntity
  8
0
100
AcDbCircle
 62
7
  6
CONTINUOUS
 10
38.1166925359
 20
43.3285907053
 40
1.4
100
AcDbArc
 50
270.0
 51
360.0
  0
ARC
  5
2AA
100
AcDbEntity
  8
A_RUNDUNGEN
100
AcDbCircle
 62
7
  6
CONTINUOUS
 10
18.2666925359
 20
45.0143771429
 40
1.0
100
AcDbArc
 50
0.0
 51
45.0
  0
ARC
  5
2AB
100
AcDbEntity
  8
0
100
AcDbCircle
 62
7
  6
CONTINUOUS
 10
46.2369085009
 20
45.9484305924
 40
0.2499996968
100
AcDbArc
 50
179.5368808227
 51
271.7368535292
  0
ARC
  5
2AC
100
AcDbEntity
  8
0
100
AcDbCircle
 62
7
  6
CONTINUOUS
 10
46.2931546672
 20
44.0935130467
 40
0.249999697
100
AcDbArc
 50
91.7368111706
 51
183.9367837887
  0
ARC
  5
2AD
100
AcDbEntity
  8
0
100
AcDbCircle
 62
7
  6
CONTINUOUS
 10
53.1783776794
 20
28.7994996782
 40
0.2499996968
100
AcDbArc
 50
224.5368808227
 51
316.7368535291
  0
ARC
  5
2AE
100
AcDbEntity
  8
0
100
AcDbCircle
 62
7
  6
CONTINUOUS
 10
49.6407486115
 20
59.0267864429
 40
0.2250001546
100
AcDbArc
 50
327.4149738635
 51
46.7368496481
  0
ARC
  5
2AF
100
AcDbEntity
  8
0
100
AcDbCircle
 62
7
  6
CONTINUOUS
 10
49.6058709419
 20
59.6775620597
 40
0.225
100
AcDbArc
 50
136.7368323278
 51
226.7368323278
  0
ARC
  5
2B0
100
AcDbEntity
  8
0
100
AcDbCircle
 62
7
  6
CONTINUOUS
 10
25.2666925359
 20
76.1285907053
 40
9.0
100
AcDbArc
 50
270.0
 51
292.619864948
  0
ARC
  5
2B1
100
AcDbEntity
  8
0
100
AcDbCircle
 62
7
  6
CONTINUOUS
 10
25.2666925359
 20
76.1285907053
 40
7.0
100
AcDbArc
 50
270.0
 51
292.619864948
  0
ARC
  5
2B2
100
AcDbEntity
  8
0
100
AcDbCircle
 62
7
  6
CONTINUOUS
 10
43.5166925359
 20
78.3285907053
 40
4.0
100
AcDbArc
 50
90.0
 51
180.0
  0
ARC
  5
2B3
100
AcDbEntity
  8
0
100
AcDbCircle
 62
7
  6
CONTINUOUS
 10
49.5166925359
 20
78.3285907053
 40
4.0
100
AcDbArc
 50
352.4528217996
 51
90.0
  0
ARC
  5
2B4
100
AcDbEntity
  8
0
100
AcDbCircle
 62
7
  6
CONTINUOUS
 10
44.6166925359
 20
66.8285907053
 40
3.5
100
AcDbArc
 50
90.0
 51
180.0
  0
ARC
  5
2B5
100
AcDbEntity
  8
0
100
AcDbCircle
 62
7
  6
CONTINUOUS
 10
53.1166925359
 20
66.8285907053
 40
3.5
100
AcDbArc
 50
38.7368323278
 51
90.0
  0
ARC
  5
2B6
100
AcDbEntity
  8
A_RUNDUNGEN
100
AcDbCircle
 62
7
  6
CONTINUOUS
 10
22.7666925359
 20
65.6285907053
 40
3.5
100
AcDbArc
 50
90.0
 51
180.0
  0
ARC
  5
2B7
100
AcDbEntity
  8
A_RUNDUNGEN
100
AcDbCircle
 62
7
  6
CONTINUOUS
 10
20.8666925359
 20
59.7859500181
 40
3.0
100
AcDbArc
 50
135.0
 51
180.0
  0
ARC
  5
2B8
100
AcDbEntity
  8
0
100
AcDbCircle
 62
7
  6
CONTINUOUS
 10
53.5166925359
 20
97.8285907053
 40
2.5
100
AcDbArc
 50
0.0
 51
90.0
  0
ARC
  5
2B9
100
AcDbEntity
  8
0
100
AcDbCircle
 62
7
  6
CONTINUOUS
 10
53.6166925359
 20
72.7285907053
 40
2.4
100
AcDbArc
 50
172.4528217996
 51
360.0
  0
ARC
  5
2BA
100
AcDbEntity
  8
0
100
AcDbCircle
 62
7
  6
CONTINUOUS
 10
49.5166925359
 20
78.3285907053
 40
2.4
100
AcDbArc
 50
352.4528217996
 51
90.0
  0
ARC
  5
2BB
100
AcDbEntity
  8
0
100
AcDbCircle
 62
7
  6
CONTINUOUS
 10
43.5166925359
 20
78.3285907053
 40
2.4
100
AcDbArc
 50
90.0
 51
180.0
  0
ARC
  5
2BC
100
AcDbEntity
  8
A_RUNDUNGEN
100
AcDbCircle
 62
7
  6
CONTINUOUS
 10
18.2666925359
 20
62.8428042676
 40
1.0
100
AcDbArc
 50
314.9999877988
 51
360.0
  0
ARC
  5
2BD
100
AcDbEntity
  8
0
100
AcDbCircle
 62
7
  6
CONTINUOUS
 10
53.5166925359
 20
97.8285907053
 40
0.9
100
AcDbArc
 50
0.0
 51
90.0
  0
ARC
  5
2BE
100
AcDbEntity
  8
0
100
AcDbCircle
 62
7
  6
CONTINUOUS
 10
53.6166925359
 20
72.7285907053
 40
0.8
100
AcDbArc
 50
172.4528217996
 51
360.0
  0
ARC
  5
2BF
100
AcDbEntity
  8
0
100
AcDbCircle
 62
7
  6
CONTINUOUS
 10
50.7146110892
 20
63.6008516549
 40
0.5000314364
100
AcDbArc
 50
46.7401485435
 51
137.8114141306
  0
ARC
  5
2C0
100
AcDbEntity
  8
0
100
AcDbCircle
 62
7
  6
CONTINUOUS
 10
44.6166925359
 20
66.8285907053
 40
0.5
100
AcDbArc
 50
90.0
 51
180.0
  0
ARC
  5
2C1
100
AcDbEntity
  8
0
100
AcDbCircle
 62
7
  6
CONTINUOUS
 10
53.1166925359
 20
66.8285907053
 40
0.5
100
AcDbArc
 50
38.7368323278
 51
90.0
  0
ARC
  5
2C2
100
AcDbEntity
  8
0
100
AcDbCircle
 62
7
  6
CONTINUOUS
 10
51.9454876791
 20
62.820101349
 40
0.225
100
AcDbArc
 50
316.7368323278
 51
46.7368323278
  0
ARC
  5
2C3
100
AcDbEntity
  8
0
100
AcDbCircle
 62
7
  6
CONTINUOUS
 10
54.5297745001
 20
27.5276469486
 40
0.249999697
100
AcDbArc
 50
136.7368111706
 51
228.9367837887
  0
ARC
  5
2C4
100
AcDbEntity
  8
0
100
AcDbCircle
 62
7
  6
CONTINUOUS
 10
70.2128629464
 20
21.5817342661
 40
0.2499996968
100
AcDbArc
 50
269.5368808227
 51
1.7368535291
  0
ARC
  5
2C5
100
AcDbEntity
  8
0
100
AcDbCircle
 62
7
  6
CONTINUOUS
 10
72.0677804921
 20
21.6379804324
 40
0.249999697
100
AcDbArc
 50
181.7368111706
 51
273.9367837887
  0
ARC
  5
2C6
100
AcDbEntity
  8
0
100
AcDbCircle
 62
7
  6
CONTINUOUS
 10
70.2703812827
 20
35.356859204
 40
0.2249997262
100
AcDbArc
 50
89.2402869938
 51
181.7368538736
  0
ARC
  5
2C7
100
AcDbEntity
  8
0
100
AcDbCircle
 62
7
  6
CONTINUOUS
 10
71.175736428
 20
35.3843120446
 40
0.2249997262
100
AcDbArc
 50
1.7368107819
 51
94.2333776618
  0
ARC
  5
2C8
100
AcDbEntity
  8
0
100
AcDbCircle
 62
7
  6
CONTINUOUS
 10
60.0394862794
 20
44.9855571108
 40
0.2249997262
100
AcDbArc
 50
271.7368107819
 51
4.2333776618
  0
ARC
  5
2C9
100
AcDbEntity
  8
0
100
AcDbCircle
 62
7
  6
CONTINUOUS
 10
62.9595335403
 20
38.4993123278
 40
0.2249997262
100
AcDbArc
 50
44.2402869938
 51
136.7368538736
  0
ARC
  5
2CA
100
AcDbEntity
  8
0
100
AcDbCircle
 62
7
  6
CONTINUOUS
 10
63.6191283927
 20
37.878541655
 40
0.2249997262
100
AcDbArc
 50
316.7368107819
 51
49.2333776618
  0
ARC
  5
2CB
100
AcDbEntity
  8
0
100
AcDbCircle
 62
7
  6
CONTINUOUS
 10
60.5522203723
 20
51.1673638624
 40
4.5
100
AcDbArc
 50
343.2063789972
 51
38.7368323278
  0
ARC
  5
2CC
100
AcDbEntity
  8
0
100
AcDbCircle
 62
7
  6
CONTINUOUS
 10
60.5522203723
 20
51.1673638624
 40
1.0
100
AcDbArc
 50
343.2063789972
 51
38.7368323278
  0
ARC
  5
2CD
100
AcDbEntity
  8
0
100
AcDbCircle
 62
7
  6
CONTINUOUS
 10
60.0120334388
 20
45.8909122561
 40
0.2249997262
100
AcDbArc
 50
359.2402869938
 51
91.7368538736
  0
ARC
  5
2CE
100
AcDbEntity
  8
A_RUNDUNGEN
100
AcDbCircle
 62
7
  6
CONTINUOUS
 10
73.2491252149
 20
43.8746427655
 40
27.8243721668
100
AcDbArc
 50
146.7695982874
 51
147.0380233609
  0
ARC
  5
2CF
100
AcDbEntity
  8
A_RUNDUNGEN
100
AcDbCircle
 62
7
  6
CONTINUOUS
 10
68.6801507086
 20
47.4012585166
 40
24.7007569322
100
AcDbArc
 50
136.5908390709
 51
137.589120438
  0
ARC
  5
2D0
100
AcDbEntity
  8
A_ACHSEN
100
AcDbCircle
 62
7
  6
CONTINUOUS
 10
69.4069403485
 20
46.6954164051
 40
4.0
100
AcDbArc
 50
88.7337717787
 51
184.7398928769
  0
ARC
  5
2D1
100
AcDbEntity
  8
A_RUNDUNGEN
100
AcDbCircle
 62
7
  6
CONTINUOUS
 10
70.3987284412
 20
45.7382697118
 40
27.0912770568
100
AcDbArc
 50
121.0683164558
 51
121.4362034882
  0
ARC
  5
2D2
100
AcDbEntity
  8
A_RUNDUNGEN
100
AcDbCircle
 62
7
  6
CONTINUOUS
 10
70.4197041922
 20
45.7645060936
 40
27.0892653439
100
AcDbArc
 50
132.4574212879
 51
133.4302238972
  0
ARC
  5
2D3
100
AcDbEntity
  8
A_RUNDUNGEN
100
AcDbCircle
 62
7
  6
CONTINUOUS
 10
70.4196868015
 20
45.7645608473
 40
27.0892140882
100
AcDbArc
 50
135.7686249883
 51
136.6044016653
  0
ARC
  5
2D4
100
AcDbEntity
  8
A_RUNDUNGEN
100
AcDbCircle
 62
7
  6
CONTINUOUS
 10
70.4323056125
 20
45.7785520552
 40
27.0878811232
100
AcDbArc
 50
120.9966730925
 51
121.5491442268
  0
ARC
  5
2D5
100
AcDbEntity
  8
A_RUNDUNGEN
100
AcDbCircle
 62
7
  6
CONTINUOUS
 10
70.395756043
 20
45.743197609
 40
27.0855221187
100
AcDbArc
 50
120.7020976341
 51
121.0683102664
  0
ARC
  5
2D6
100
AcDbEntity
  8
0
100
AcDbCircle
 62
7
  6
CONTINUOUS
 10
70.4082338868
 20
45.753059652
 40
27.0778853624
100
AcDbArc
 50
107.8145057957
 51
118.4055549787
  0
ARC
  5
2D7
100
AcDbEntity
  8
0
100
AcDbCircle
 62
7
  6
CONTINUOUS
 10
70.4082338868
 20
45.753059652
 40
27.0778853624
100
AcDbArc
 50
137.8147803659
 51
80.1970926677
  0
ARC
  5
2D8
100
AcDbEntity
  8
0
100
AcDbCircle
 62
7
  6
CONTINUOUS
 10
70.4077595475
 20
46.0042440295
 40
26.8316962938
100
AcDbArc
 50
80.7696535598
 51
91.7562056231
  0
ARC
  5
2D9
100
AcDbEntity
  8
A_RUNDUNGEN
100
AcDbCircle
 62
7
  6
CONTINUOUS
 10
70.4133255986
 20
45.7180636056
 40
24.4531311871
100
AcDbArc
 50
99.7244841242
 51
111.7860133949
  0
ARC
  5
2DA
100
AcDbEntity
  8
A_RUNDUNGEN
100
AcDbCircle
 62
7
  6
CONTINUOUS
 10
70.4075242341
 20
45.7355705114
 40
24.4276461257
100
AcDbArc
 50
144.8730630741
 51
146.7681895572
  0
ARC
  5
2DB
100
AcDbEntity
  8
0
100
AcDbCircle
 62
7
  6
CONTINUOUS
 10
70.4082338868
 20
45.753059652
 40
24.4221146376
100
AcDbArc
 50
273.9367626315
 51
314.536902024
  0
ARC
  5
2DC
100
AcDbEntity
  8
0
100
AcDbCircle
 62
7
  6
CONTINUOUS
 10
70.4082338868
 20
45.753059652
 40
24.4221146376
100
AcDbArc
 50
228.9367626315
 51
269.536902024
  0
ARC
  5
2DD
100
AcDbEntity
  8
0
100
AcDbCircle
 62
7
  6
CONTINUOUS
 10
70.4082338868
 20
45.753059652
 40
24.4221146376
100
AcDbArc
 50
48.9367626315
 51
86.4155898806
  0
ARC
  5
2DE
100
AcDbEntity
  8
0
100
AcDbCircle
 62
7
  6
CONTINUOUS
 10
70.4082338868
 20
45.753059652
 40
24.4221146376
100
AcDbArc
 50
183.9367626315
 51
224.536902024
  0
ARC
  5
2DF
100
AcDbEntity
  8
0
100
AcDbCircle
 62
7
  6
CONTINUOUS
 10
70.4082338868
 20
45.753059652
 40
24.4221146376
100
AcDbArc
 50
3.9367626315
 51
44.536902024
  0
ARC
  5
2E0
100
AcDbEntity
  8
0
100
AcDbCircle
 62
7
  6
CONTINUOUS
 10
70.4082338868
 20
45.753059652
 40
24.4221146376
100
AcDbArc
 50
318.9367626315
 51
359.536902024
  0
ARC
  5
2E1
100
AcDbEntity
  8
0
100
AcDbCircle
 62
7
  6
CONTINUOUS
 10
70.4082338868
 20
45.753059652
 40
24.4221146376
100
AcDbArc
 50
147.4149504872
 51
179.536902024
  0
ARC
  5
2E2
100
AcDbEntity
  8
A_RUNDUNGEN
100
AcDbCircle
 62
7
  6
CONTINUOUS
 10
70.41855361
 20
45.7640293742
 40
24.4120263379
100
AcDbArc
 50
111.8367357276
 51
112.9248814657
  0
ARC
  5
2E3
100
AcDbEntity
  8
A_RUNDUNGEN
100
AcDbCircle
 62
7
  6
CONTINUOUS
 10
70.4185382102
 20
45.7640575001
 40
24.4119944715
100
AcDbArc
 50
112.964129332
 51
113.5738652
  0
ARC
  5
2E4
100
AcDbEntity
  8
0
100
AcDbCircle
 62
7
  6
CONTINUOUS
 10
70.4082338868
 20
45.753059652
 40
10.1721146376
100
AcDbArc
 50
317.2949886223
 51
319.2333561159
  0
ARC
  5
2E5
100
AcDbEntity
  8
0
100
AcDbCircle
 62
7
  6
CONTINUOUS
 10
70.4082338868
 20
45.753059652
 40
10.1721146376
100
AcDbArc
 50
314.2403085396
 51
316.1786760332
  0
ARC
  5
2E6
100
AcDbEntity
  8
0
100
AcDbCircle
 62
7
  6
CONTINUOUS
 10
70.4082338868
 20
45.753059652
 40
10.1721146376
100
AcDbArc
 50
272.2949886223
 51
274.2333561159
  0
ARC
  5
2E7
100
AcDbEntity
  8
0
100
AcDbCircle
 62
7
  6
CONTINUOUS
 10
70.4082338868
 20
45.753059652
 40
10.1721146376
100
AcDbArc
 50
269.2403085396
 51
271.1786760332
  0
ARC
  5
2E8
100
AcDbEntity
  8
0
100
AcDbCircle
 62
7
  6
CONTINUOUS
 10
70.4082338868
 20
45.753059652
 40
10.1721146376
100
AcDbArc
 50
227.2949886223
 51
229.2333561159
  0
ARC
  5
2E9
100
AcDbEntity
  8
0
100
AcDbCircle
 62
7
  6
CONTINUOUS
 10
70.4082338868
 20
45.753059652
 40
10.1721146376
100
AcDbArc
 50
224.2403085396
 51
226.1786760332
  0
ARC
  5
2EA
100
AcDbEntity
  8
0
100
AcDbCircle
 62
7
  6
CONTINUOUS
 10
70.4082338868
 20
45.753059652
 40
10.1721146376
100
AcDbArc
 50
182.2949886223
 51
184.2333561159
  0
ARC
  5
2EB
100
AcDbEntity
  8
0
100
AcDbCircle
 62
7
  6
CONTINUOUS
 10
70.4082338868
 20
45.753059652
 40
10.1721146376
100
AcDbArc
 50
179.2403085396
 51
181.1786760332
  0
ARC
  5
2EC
100
AcDbEntity
  8
0
100
AcDbCircle
 62
7
  6
CONTINUOUS
 10
70.4082338868
 20
45.753059652
 40
10.1721146376
100
AcDbArc
 50
47.2949886223
 51
49.2333561159
  0
ARC
  5
2ED
100
AcDbEntity
  8
0
100
AcDbCircle
 62
7
  6
CONTINUOUS
 10
70.4082338868
 20
45.753059652
 40
10.1721146376
100
AcDbArc
 50
44.2403085396
 51
46.1786760332
  0
ARC
  5
2EE
100
AcDbEntity
  8
0
100
AcDbCircle
 62
7
  6
CONTINUOUS
 10
70.4082338868
 20
45.753059652
 40
10.1721146376
100
AcDbArc
 50
2.2949886223
 51
4.2333561159
  0
ARC
  5
2EF
100
AcDbEntity
  8
0
100
AcDbCircle
 62
7
  6
CONTINUOUS
 10
70.4082338868
 20
45.753059652
 40
10.1721146376
100
AcDbArc
 50
359.2403085396
 51
1.1786760332
  0
ARC
  5
2F0
100
AcDbEntity
  8
0
100
AcDbCircle
 62
7
  6
CONTINUOUS
 10
70.4082338868
 20
45.753059652
 40
10.0
100
AcDbArc
 50
163.2063789972
 51
127.0177010069
  0
ARC
  5
2F1
100
AcDbEntity
  8
A_ACHSEN
100
AcDbCircle
 62
7
  6
CONTINUOUS
 10
70.4082338868
 20
45.753059652
 40
8.75
100
AcDbArc
 50
127.0158783376
 51
129.5028078006
  0
ARC
  5
2F2
100
AcDbEntity
  8
0
100
AcDbCircle
 62
7
  6
CONTINUOUS
 10
70.4082338868
 20
45.753059652
 40
6.6
100
AcDbArc
 50
127.0160365063
 51
127.2241365567
  0
CIRCLE
  5
2F3
100
AcDbEntity
  8
0
100
AcDbCircle
 62
7
  6
CONTINUOUS
 10
70.4082338868
 20
45.753059652
 40
6.5
  0
ARC
  5
2F4
100
AcDbEntity
  8
A_ACHSEN
100
AcDbCircle
 62
7
  6
CONTINUOUS
 10
70.4082338868
 20
45.753059652
 40
6.4
100
AcDbArc
 50
226.7368323278
 51
46.7368323278
  0
ARC
  5
2F5
100
AcDbEntity
  8
0
100
AcDbCircle
 62
7
  6
CONTINUOUS
 10
70.4082338868
 20
45.753059652
 40
6.4
100
AcDbArc
 50
46.7368323278
 51
226.7368323278
  0
ARC
  5
2F6
100
AcDbEntity
  8
0
100
AcDbCircle
 62
7
  6
CONTINUOUS
 10
70.4082338868
 20
45.753059652
 40
5.5339745962
100
AcDbArc
 50
204.4357216458
 51
69.0379430098
  0
CIRCLE
  5
2F7
100
AcDbEntity
  8
A_ACHSEN
100
AcDbCircle
 62
7
  6
CONTINUOUS
 10
70.4082338868
 20
45.753059652
 40
5.025
  0
CIRCLE
  5
2F8
100
AcDbEntity
  8
A_FASEN
100
AcDbCircle
 62
7
  6
CONTINUOUS
 10
70.4082338868
 20
45.753059652
 40
5.0
  0
CIRCLE
  5
2F9
100
AcDbEntity
  8
A_FASEN
100
AcDbCircle
 62
7
  6
CONTINUOUS
 10
70.4082338868
 20
45.753059652
 40
3.5
  0
ARC
  5
2FA
100
AcDbEntity
  8
0
100
AcDbCircle
 62
7
  6
CONTINUOUS
 10
71.3858899708
 20
52.1151619472
 40
20.6430074501
100
AcDbArc
 50
80.0586995584
 51
80.6545675758
  0
ARC
  5
2FB
100
AcDbEntity
  8
0
100
AcDbCircle
 62
7
  6
CONTINUOUS
 10
87.3617938606
 20
28.5232034446
 40
0.2499996968
100
AcDbArc
 50
314.5368808227
 51
46.7368535292
  0
ARC
  5
2FC
100
AcDbEntity
  8
0
100
AcDbCircle
 62
7
  6
CONTINUOUS
 10
88.6336465902
 20
29.8746002653
 40
0.249999697
100
AcDbArc
 50
226.7368111706
 51
318.9367837887
  0
ARC
  5
2FD
100
AcDbEntity
  8
0
100
AcDbCircle
 62
7
  6
CONTINUOUS
 10
94.5233131064
 20
47.4126062574
 40
0.249999697
100
AcDbArc
 50
271.7368111706
 51
3.9367837887
  0
ARC
  5
2FE
100
AcDbEntity
  8
0
100
AcDbCircle
 62
7
  6
CONTINUOUS
 10
94.5795592727
 20
45.5576887116
 40
0.2499996968
100
AcDbArc
 50
359.5368808227
 51
91.7368535292
  0
ARC
  5
2FF
100
AcDbEntity
  8
0
100
AcDbCircle
 62
7
  6
CONTINUOUS
 10
77.661981211
 20
38.3043593055
 40
0.2249997262
100
AcDbArc
 50
134.2402869938
 51
226.7368538736
  0
ARC
  5
300
100
AcDbEntity
  8
0
100
AcDbCircle
 62
7
  6
CONTINUOUS
 10
78.2827518838
 20
38.9639541579
 40
0.2249997262
100
AcDbArc
 50
46.7368107819
 51
139.2333776618
  0
ARC
  5
301
100
AcDbEntity
  8
0
100
AcDbCircle
 62
7
  6
CONTINUOUS
 10
80.8044343348
 20
45.6152070479
 40
0.2249997262
100
AcDbArc
 50
179.2402869938
 51
271.7368538736
  0
ARC
  5
302
100
AcDbEntity
  8
0
100
AcDbCircle
 62
7
  6
CONTINUOUS
 10
80.7769814942
 20
46.5205621932
 40
0.2249997262
100
AcDbArc
 50
91.7368107819
 51
184.2333776618
  0
ARC
  5
303
100
AcDbEntity
  8
0
100
AcDbCircle
 62
7
  6
CONTINUOUS
 10
77.8569342333
 20
53.0068069762
 40
0.2249997262
100
AcDbArc
 50
224.2402869938
 51
316.7368538736
  0
ARC
  5
304
100
AcDbEntity
  8
0
100
AcDbCircle
 62
7
  6
CONTINUOUS
 10
77.1973393809
 20
53.6275776491
 40
0.2249997262
100
AcDbArc
 50
136.7368107819
 51
229.2333776618
  0
ARC
  5
305
100
AcDbEntity
  8
0
100
AcDbCircle
 62
7
  6
CONTINUOUS
 10
58.2385267181
 20
63.1773408938
 40
6.0
100
AcDbArc
 50
61.2499200175
 51
95.5723558232
  0
ARC
  5
306
100
AcDbEntity
  8
A_ACHSEN
100
AcDbCircle
 62
7
  6
CONTINUOUS
 10
58.2167640307
 20
63.4464165538
 40
5.6
100
AcDbArc
 50
68.9726746315
 51
103.6067863184
  0
ARC
  5
307
100
AcDbEntity
  8
A_ACHSEN
100
AcDbCircle
 62
7
  6
CONTINUOUS
 10
58.4421084771
 20
63.1655109672
 40
5.6
100
AcDbArc
 50
333.8668783371
 51
8.500990024
  0
ARC
  5
308
100
AcDbEntity
  8
A_RUNDUNGEN
100
AcDbCircle
 62
7
  6
CONTINUOUS
 10
56.5214433941
 20
68.4350472475
 40
0.5016278987
100
AcDbArc
 50
121.5297446984
 51
134.525999596
  0
ARC
  5
309
100
AcDbEntity
  8
A_RUNDUNGEN
100
AcDbCircle
 62
7
  6
CONTINUOUS
 10
56.5210849811
 20
68.4358090762
 40
0.5008335129
100
AcDbArc
 50
134.5578825628
 51
146.1652797787
  0
ARC
  5
30A
100
AcDbEntity
  8
A_RUNDUNGEN
100
AcDbCircle
 62
7
  6
CONTINUOUS
 10
56.530379296
 20
68.4264758608
 40
0.5002257967
100
AcDbArc
 50
144.6285269443
 51
147.9420887787
  0
ARC
  5
30B
100
AcDbEntity
  8
A_RUNDUNGEN
100
AcDbCircle
 62
7
  6
CONTINUOUS
 10
61.2444586884
 20
68.6589909183
 40
0.2522179677
100
AcDbArc
 50
274.719774825
 51
291.7113507695
  0
ARC
  5
30C
100
AcDbEntity
  8
A_RUNDUNGEN
100
AcDbCircle
 62
7
  6
CONTINUOUS
 10
61.2450495723
 20
68.6575190151
 40
0.2507225117
100
AcDbArc
 50
241.2530795924
 51
257.7650407542
  0
ARC
  5
30D
100
AcDbEntity
  8
A_RUNDUNGEN
100
AcDbCircle
 62
7
  6
CONTINUOUS
 10
61.4459213888
 20
61.6395147219
 40
0.25
100
AcDbArc
 50
38.7368512029
 51
128.7368323278
  0
ARC
  5
30E
100
AcDbEntity
  8
A_RUNDUNGEN
100
AcDbCircle
 62
7
  6
CONTINUOUS
 10
57.378583938
 20
66.7096987483
 40
0.25
100
AcDbArc
 50
308.7368323278
 51
38.7368134526
  0
ARC
  5
30F
100
AcDbEntity
  8
0
100
AcDbCircle
 62
7
  6
CONTINUOUS
 10
87.6380900942
 20
62.7066196258
 40
0.2499996968
100
AcDbArc
 50
44.5368808227
 51
136.7368535292
  0
ARC
  5
310
100
AcDbEntity
  8
0
100
AcDbCircle
 62
7
  6
CONTINUOUS
 10
86.2866932735
 20
63.9784723554
 40
0.249999697
100
AcDbArc
 50
316.7368111706
 51
48.9367837887
  0
ARC
  5
311
100
AcDbEntity
  8
0
100
AcDbCircle
 62
7
  6
CONTINUOUS
 10
62.2847347106
 20
71.1393920825
 40
0.2499289183
100
AcDbArc
 50
309.5450142363
 51
28.4655123324
  0
ARC
  5
312
100
AcDbEntity
  8
0
100
AcDbCircle
 62
7
  6
CONTINUOUS
 10
62.2006429123
 20
71.2945971795
 40
0.2498809658
100
AcDbArc
 50
28.4628159007
 51
107.8217536659
  0
ARC
  5
313
100
AcDbEntity
  8
A_RUNDUNGEN
100
AcDbCircle
 62
7
  6
CONTINUOUS
 10
61.2449122224
 20
68.6564613615
 40
0.2496597897
100
AcDbArc
 50
257.7444070604
 51
274.6638105566
  0
ARC
  5
314
100
AcDbEntity
  8
0
100
AcDbCircle
 62
7
  6
CONTINUOUS
 10
57.6340754775
 20
69.3729280979
 40
0.225002385
100
AcDbArc
 50
118.4092453523
 51
275.5689238929
  0
LINE
  5
315
100
AcDbEntity
  8
0
100
AcDbLine
 62
7
  6
CONTINUOUS
 10
74.711670888
 20
72.488508663
 11
74.7380314251
 21
72.4841801919
  0
SPLINE
  5
316
100
AcDbEntity
  8
0
100
AcDbSpline
 62
7
  6
CONTINUOUS
 70
0
 71
3
 72
26
 73
22
 74
0
 42
0.0000001
 43
0.0000001
 44
0.0000000001
 40
0.0
 40
0.0
 40
0.0
 40
0.0
 40
0.0009626732
 40
0.0036237369
 40
0.0079100975
 40
0.0137364863
 40
0.0209614567
 40
0.0294273794
 40
0.0494800779
 40
0.0728766798
 40
0.0987535084
 40
0.1265376677
 40
0.1557741129
 40
0.2174931262
 40
0.2823173964
 40
0.3493459977
 40
0.4180485488
 40
0.5591872344
 40
0.7039912438
 40
0.8513032361
 40
1.0
 40
1.0
 40
1.0
 40
1.0
 10
62.1241244877
 20
71.5326137047
 30
0.0
 10
62.1263055897
 20
71.5337026474
 30
0.0
 10
62.1352663559
 20
71.5360152055
 30
0.0
 10
62.1540449625
 20
71.5428626587
 30
0.0
 10
62.184929874
 20
71.5525863822
 30
0.0
 10
62.2266606445
 20
71.5661908941
 30
0.0
 10
62.2785888601
 20
71.5827166947
 30
0.0
 10
62.3648835554
 20
71.6100272453
 30
0.0
 10
62.4904184782
 20
71.6490824993
 30
0.0
 10
62.6583682543
 20
71.7002079521
 30
0.0
 10
62.845463523
 20
71.7556568224
 30
0.0
 10
63.0471854862
 20
71.8137764983
 30
0.0
 10
63.3367980865
 20
71.89465318
 30
0.0
 10
63.718105167
 20
71.9958648302
 30
0.0
 10
64.1940924227
 20
72.1131271361
 30
0.0
 10
64.6894312073
 20
72.2254253293
 30
0.0
 10
65.3760838662
 20
72.3673548987
 30
0.0
 10
66.2608181842
 20
72.5231279232
 30
0.0
 10
67.348427076
 20
72.6698009669
 30
0.0
 10
68.4602054195
 20
72.7734448989
 30
0.0
 10
69.2090759081
 20
72.8118990249
 30
0.0
 10
69.5854546938
 20
72.8233368689
 30
0.0
  0
LINE
  5
317
100
AcDbEntity
  8
A_RUNDUNGEN
100
AcDbLine
 62
7
  6
CONTINUOUS
 10
52.1282110454
 20
65.7551867308
 11
52.1333090369
 21
65.7504023481
  0
LINE
  5
318
100
AcDbEntity
  8
A_RUNDUNGEN
100
AcDbLine
 62
7
  6
CONTINUOUS
 10
49.9035914955
 20
59.0133924443
 11
49.8324998374
 21
58.9035792076
  0
LINE
  5
319
100
AcDbEntity
  8
A_RUNDUNGEN
100
AcDbLine
 62
7
  6
CONTINUOUS
 10
60.9094798029
 20
68.2479024168
 11
60.8940823777
 21
68.241384191
  0
LINE
  5
31A
100
AcDbEntity
  8
0
100
AcDbLine
 62
7
  6
CONTINUOUS
 10
74.7781383228
 20
72.3959852802
 11
74.9128225986
 21
72.431128979
  0
SPLINE
  5
31B
100
AcDbEntity
  8
0
100
AcDbSpline
 62
7
  6
CONTINUOUS
 70
0
 71
3
 72
8
 73
4
 74
0
 42
0.0000001
 43
0.0000001
 44
0.0000000001
 40
0.0
 40
0.0
 40
0.0
 40
0.0
 40
1.0
 40
1.0
 40
1.0
 40
1.0
 10
74.91281967
 20
72.4311402023
 30
0.0
 10
74.9469358155
 20
72.4400422522
 30
0.0
 10
74.9837577465
 20
72.4415924131
 30
0.0
 10
75.0185013909
 20
72.4355893269
 30
0.0
  0
SPLINE
  5
31C
100
AcDbEntity
  8
0
100
AcDbSpline
 62
7
  6
CONTINUOUS
 70
0
 71
3
 72
8
 73
4
 74
0
 42
0.0000001
 43
0.0000001
 44
0.0000000001
 40
0.0
 40
0.0
 40
0.0
 40
0.0
 40
1.0
 40
1.0
 40
1.0
 40
1.0
 10
74.6841425079
 20
72.3485868363
 30
0.0
 10
74.71143906
 20
72.370641352
 30
0.0
 10
74.7441727551
 20
72.3871622925
 30
0.0
 10
74.778128605
 20
72.3960225225
 30
0.0
  0
SPLINE
  5
31D
100
AcDbEntity
  8
A_RUNDUNGEN
100
AcDbSpline
 62
7
  6
CONTINUOUS
 70
0
 71
3
 72
8
 73
4
 74
0
 42
0.0000001
 43
0.0000001
 44
0.0000000001
 40
0.0
 40
0.0
 40
0.0
 40
0.0
 40
1.0
 40
1.0
 40
1.0
 40
1.0
 10
56.1224871215
 20
68.7160441976
 30
0.0
 10
56.1612465261
 20
68.7706400158
 30
0.0
 10
56.2121783017
 20
68.8182036079
 30
0.0
 10
56.2693037492
 20
68.8531274973
 30
0.0
  0
SPLINE
  5
31E
100
AcDbEntity
  8
A_RUNDUNGEN
100
AcDbSpline
 62
7
  6
CONTINUOUS
 70
0
 71
3
 72
18
 73
14
 74
0
 42
0.0000001
 43
0.0000001
 44
0.0000000001
 40
0.0
 40
0.0
 40
0.0
 40
0.0
 40
0.0032460536
 40
0.0131693611
 40
0.0301479904
 40
0.0545537938
 40
0.0867579278
 40
0.1271313599
 40
0.2338696478
 40
0.3767447347
 40
0.5539067641
 40
0.7625827664
 40
1.0
 40
1.0
 40
1.0
 40
1.0
 10
50.340285141
 20
63.9469116055
 30
0.0
 10
50.3401672231
 20
63.9470279346
 30
0.0
 10
50.3410991639
 20
63.947610535
 30
0.0
 10
50.3416041723
 20
63.9487147287
 30
0.0
 10
50.3436231339
 20
63.9507198113
 30
0.0
 10
50.3459786383
 20
63.9535143555
 30
0.0
 10
50.3493247736
 20
63.9572160014
 30
0.0
 10
50.3553995724
 20
63.9640313889
 30
0.0
 10
50.3653128872
 20
63.9750364879
 30
0.0
 10
50.3798971448
 20
63.9912009629
 30
0.0
 10
50.3980125827
 20
64.0111972657
 30
0.0
 10
50.4194007949
 20
64.0347339466
 30
0.0
 10
50.4347380648
 20
64.0515552279
 30
0.0
 10
50.4429078324
 20
64.0605011552
 30
0.0
  0
SPLINE
  5
31F
100
AcDbEntity
  8
A_RUNDUNGEN
100
AcDbSpline
 62
7
  6
CONTINUOUS
 70
0
 71
3
 72
25
 73
21
 74
0
 42
0.0000001
 43
0.0000001
 44
0.0000000001
 40
0.0
 40
0.0
 40
0.0
 40
0.0
 40
0.2478630279
 40
0.4527512745
 40
0.6191931371
 40
0.6891890084
 40
0.7509661281
 40
0.8050124218
 40
0.8519752677
 40
0.8925418349
 40
0.9273991795
 40
0.9568670963
 40
0.9692444785
 40
0.9797986078
 40
0.988340333
 40
0.994680507
 40
0.996965909
 40
0.9986300056
 40
0.9996491821
 40
1.0
 40
1.0
 40
1.0
 40
1.0
 10
56.5665816935
 20
69.0322387148
 30
0.0
 10
56.6440618239
 20
69.0782468486
 30
0.0
 10
56.7859887022
 20
69.1616154043
 30
0.0
 10
56.9811796338
 20
69.2737538477
 30
0.0
 10
57.1208718775
 20
69.3526764564
 30
0.0
 10
57.2155318699
 20
69.4055304692
 30
0.0
 10
57.2746073013
 20
69.4382982094
 30
0.0
 10
57.3264219005
 20
69.4668925913
 30
0.0
 10
57.3715395414
 20
69.4916623254
 30
0.0
 10
57.4105885784
 20
69.5129903621
 30
0.0
 10
57.4440927162
 20
69.5311997347
 30
0.0
 10
57.4686144008
 20
69.5444800772
 30
0.0
 10
57.4853773541
 20
69.5535240741
 30
0.0
 10
57.49545241
 20
69.5589607914
 30
0.0
 10
57.5035956685
 20
69.5633065473
 30
0.0
 10
57.5091054553
 20
69.5663163273
 30
0.0
 10
57.5123980742
 20
69.5679831562
 30
0.0
 10
57.5140117774
 20
69.5689812696
 30
0.0
 10
57.5149588819
 20
69.5692137914
 30
0.0
 10
57.5154353782
 20
69.5697346236
 30
0.0
 10
57.5155394211
 20
69.5696608571
 30
0.0
  0
SPLINE
  5
320
100
AcDbEntity
  8
0
100
AcDbSpline
 62
7
  6
CONTINUOUS
 70
0
 71
3
 72
32
 73
28
 74
0
 42
0.0000001
 43
0.0000001
 44
0.0000000001
 40
0.0
 40
0.0
 40
0.0
 40
0.0
 40
0.1595805083
 40
0.3182178342
 40
0.396701482
 40
0.4742339381
 40
0.5504004192
 40
0.6246547769
 40
0.6962601786
 40
0.7642390652
 40
0.8273260222
 40
0.8565140475
 40
0.8838216201
 40
0.9089792382
 40
0.931680721
 40
0.9516180336
 40
0.9684903738
 40
0.9756861616
 40
0.9820065849
 40
0.9874153198
 40
0.991881765
 40
0.9953887018
 40
0.9979208255
 40
0.9988165573
 40
0.9994628667
 40
0.9998578852
 40
1.0
 40
1.0
 40
1.0
 40
1.0
 10
66.282932943
 20
69.8198370126
 30
0.0
 10
66.580352786
 20
69.8708161026
 30
0.0
 10
67.1753698912
 20
69.9615106786
 30
0.0
 10
67.9207796313
 20
70.0471592101
 30
0.0
 10
68.5135504635
 20
70.0988312455
 30
0.0
 10
68.9515764593
 20
70.1290614479
 30
0.0
 10
69.3820807718
 20
70.1511014404
 30
0.0
 10
69.8017005198
 20
70.1652759395
 30
0.0
 10
70.2060169074
 20
70.1721272557
 30
0.0
 10
70.5892714374
 20
70.1724887628
 30
0.0
 10
70.8922827488
 20
70.1681866184
 30
0.0
 10
71.1183393313
 20
70.1626339107
 30
0.0
 10
71.2726676403
 20
70.157849966
 30
0.0
 10
71.4147070983
 20
70.1526005959
 30
0.0
 10
71.5427926772
 20
70.147196843
 30
0.0
 10
71.6552022629
 20
70.1419436499
 30
0.0
 10
71.7383081935
 20
70.1377431067
 30
0.0
 10
71.79569091
 20
70.1347135676
 30
0.0
 10
71.8314256856
 20
70.1327862073
 30
0.0
 10
71.8620032157
 20
70.1311244789
 30
0.0
 10
71.8872762606
 20
70.1297359826
 30
0.0
 10
71.9070981467
 20
70.1287029181
 30
0.0
 10
71.9202243854
 20
70.1279456077
 30
0.0
 10
71.9278773662
 20
70.1276697672
 30
0.0
 10
71.931606958
 20
70.1273450366
 30
0.0
 10
71.9337161466
 20
70.1275633654
 30
0.0
 10
71.9348700506
 20
70.1272302867
 30
0.0
 10
71.9350790798
 20
70.1273991739
 30
0.0
  0
ENDSEC
  0
SECTION
  2
OBJECTS
  0
DICTIONARY
  5
321
100
AcDbDictionary
  3
ACAD_GROUP
350
322
  3
ACAD_MLINESTYLE
350
323
  0
DICTIONARY
  5
322
102
{ACAD_REACTORS
330
321
102
}
100
AcDbDictionary
  0
DICTIONARY
  5
323
102
{ACAD_REACTORS
330
321
102
}
100
AcDbDictionary
  3
STANDARD
350
324
  0
MLINESTYLE
  5
324
102
{ACAD_REACTORS
330
323
102
}
100
AcDbMlineStyle
  2
STANDARD
 70
0
  3

 62
256
 51
90.0
 52
90.0
 71
2
 49
0.5
 62
256
  6
BYLAYER
 49
-0.5
 62
256
  6
BYLAYER
  0
ENDSEC
  0
EOF
