999
DXF file: d:\tmp\workingDir\0000043602\v_1999_klemmschutz_q02_01.dxf
999
Pro/ENGINEER 2013430 by Parametric Technology Corporation
  0
SECTION
  2
HEADER
  9
$ACADVER
  1
AC1014
  9
$DWGCODEPAGE
  3
ANSI_1252
  9
$EXTMAX
 10
200.0
 20
120.0
 30
0.0
  9
$EXTMIN
 10
0.0
 20
-0.0
 30
0.0
  9
$LIMMIN
 10
0.0
 20
-0.0
  9
$LIMMAX
 10
200.0
 20
120.0
  9
$VIEWCTR
 10
100.0
 20
60.0
  9
$VIEWSIZE
 40
120.0
  9
$CLAYER
  8
0
  9
$LTSCALE
 40
11.0
  9
$CELTYPE
  6
BYLAYER
  9
$DIMSCALE
 40
1.0
  9
$DIMASZ
 40
3.5
  9
$DIMEXO
 40
0.0
  9
$DIMDLI
 40
7.6
  9
$DIMEXE
 40
2.0
  9
$DIMCEN
 40
1.8
  9
$DIMLFAC
 40
1.0
  9
$DIMBLK
  1
_ARROW_FILLED
  9
$DIMTXT
 40
3.5
  9
$DIMTOL
 70
1
  9
$DIMLIM
 70
0
  9
$DIMTFAC
 40
1.0
  9
$DIMTP
 40
0.01
  9
$DIMTM
 40
0.01
  9
$DIMGAP
 40
0.625
  9
$PDMODE
 70
0
  9
$PDSIZE
 40
0.04
  9
$HANDSEED
  5
329
  9
$TILEMODE
 70
1
  9
$MEASUREMENT
 70
1
  0
ENDSEC
  0
SECTION
  2
CLASSES
  0
ENDSEC
  0
SECTION
  2
TABLES
  0
TABLE
  2
VPORT
  5
8
100
AcDbSymbolTable
 70
2
  0
VPORT
  5
1F4
100
AcDbSymbolTableRecord
100
AcDbViewportTableRecord
  2
*ACTIVE
 70
0
 10
0.0
 20
0.0
 11
1.0
 21
1.0
 12
100.0
 22
60.0
 13
0.0
 23
0.0
 14
1.0
 24
1.0
 15
0.0
 25
0.0
 16
0.0
 26
0.0
 36
1.0
 17
0.0
 27
0.0
 37
0.0
 40
120.0
 41
1.6666666667
 42
50.0
 43
0.0
 44
0.0
 50
0.0
 51
0.0
 71
0
 72
100
 73
1
 74
1
 75
0
 76
0
 77
0
 78
0
  0
ENDTAB
  0
TABLE
  2
LTYPE
  5
5
100
AcDbSymbolTable
 70
6
  0
LTYPE
  5
14
100
AcDbSymbolTableRecord
100
AcDbLinetypeTableRecord
  2
BYBLOCK
 70
0
  3

 72
65
 73
0
 40
0.0
  0
LTYPE
  5
15
100
AcDbSymbolTableRecord
100
AcDbLinetypeTableRecord
  2
BYLAYER
 70
0
  3

 72
65
 73
0
 40
0.0
  0
LTYPE
  5
16
100
AcDbSymbolTableRecord
100
AcDbLinetypeTableRecord
  2
CONTINUOUS
 70
64
  3
Solid line
 72
65
 73
0
 40
0.0
  0
LTYPE
  5
1F5
100
AcDbSymbolTableRecord
100
AcDbLinetypeTableRecord
  2
CENTER
 70
64
  3
____ _ ____ _ ____ _ ____ _ ____ _ ____ _ ____
 72
65
 73
4
 40
0.6
 49
0.375
 74
0
 49
-0.075
 74
0
 49
0.075
 74
0
 49
-0.075
 74
0
  0
LTYPE
  5
1F6
100
AcDbSymbolTableRecord
100
AcDbLinetypeTableRecord
  2
HIDDEN
 70
64
  3
- - - - - - - - - - - - - - - - - - - -
 72
65
 73
2
 40
0.2
 49
0.1
 74
0
 49
-0.1
 74
0
  0
LTYPE
  5
1F7
100
AcDbSymbolTableRecord
100
AcDbLinetypeTableRecord
  2
PHANTOM
 70
64
  3
_____ _ _ _____ _ _ _____ _ _ _____
 72
65
 73
6
 40
0.8
 49
0.45
 74
0
 49
-0.05
 74
0
 49
0.1
 74
0
 49
-0.05
 74
0
 49
0.1
 74
0
 49
-0.05
 74
0
  0
LTYPE
  5
1F8
100
AcDbSymbolTableRecord
100
AcDbLinetypeTableRecord
  2
DOT
 70
64
  3
. . . . . . . . . . . . . . . . . . . .
 72
65
 73
2
 40
0.2
 49
0.1
 74
0
 49
-0.1
 74
0
  0
LTYPE
  5
1F9
100
AcDbSymbolTableRecord
100
AcDbLinetypeTableRecord
  2
DASHED
 70
64
  3
- - - - - - - - - - - - - - - - - - - -
 72
65
 73
2
 40
0.2
 49
0.1
 74
0
 49
-0.1
 74
0
  0
ENDTAB
  0
TABLE
  2
LAYER
  5
2
100
AcDbSymbolTable
 70
36
  0
LAYER
  5
10
100
AcDbSymbolTableRecord
100
AcDbLayerTableRecord
  2
0
 70
0
 62
7
  6
CONTINUOUS
  0
LAYER
  5
1FA
100
AcDbSymbolTableRecord
100
AcDbLayerTableRecord
  2
DEFAULT_1
 70
0
 62
7
  6
CENTER
  0
LAYER
  5
1FB
100
AcDbSymbolTableRecord
100
AcDbLayerTableRecord
  2
DEFAULT_2
 70
0
 62
8
  6
HIDDEN
  0
LAYER
  5
1FC
100
AcDbSymbolTableRecord
100
AcDbLayerTableRecord
  2
DEFAULT_3
 70
0
 62
7
  6
PHANTOM
  0
LAYER
  5
1FD
100
AcDbSymbolTableRecord
100
AcDbLayerTableRecord
  2
A_ACHSEN
 70
0
 62
7
  6
CONTINUOUS
  0
LAYER
  5
1FE
100
AcDbSymbolTableRecord
100
AcDbLayerTableRecord
  2
A_BASISEBENEN
 70
0
 62
7
  6
CONTINUOUS
  0
LAYER
  5
1FF
100
AcDbSymbolTableRecord
100
AcDbLayerTableRecord
  2
A_BEMASSUNGEN
 70
0
 62
7
  6
CONTINUOUS
  0
LAYER
  5
200
100
AcDbSymbolTableRecord
100
AcDbLayerTableRecord
  2
A_BOHRUNGEN
 70
0
 62
7
  6
CONTINUOUS
  0
LAYER
  5
201
100
AcDbSymbolTableRecord
100
AcDbLayerTableRecord
  2
A_EBENEN
 70
0
 62
7
  6
CONTINUOUS
  0
LAYER
  5
202
100
AcDbSymbolTableRecord
100
AcDbLayerTableRecord
  2
A_FASEN
 70
0
 62
7
  6
CONTINUOUS
  0
LAYER
  5
203
100
AcDbSymbolTableRecord
100
AcDbLayerTableRecord
  2
A_FLAECHEN
 70
0
 62
7
  6
CONTINUOUS
  0
LAYER
  5
204
100
AcDbSymbolTableRecord
100
AcDbLayerTableRecord
  2
A_FL_VERBAENDE
 70
0
 62
7
  6
CONTINUOUS
  0
LAYER
  5
205
100
AcDbSymbolTableRecord
100
AcDbLayerTableRecord
  2
A_KURVEN
 70
0
 62
7
  6
CONTINUOUS
  0
LAYER
  5
206
100
AcDbSymbolTableRecord
100
AcDbLayerTableRecord
  2
A_NOTIZEN_SYMB
 70
0
 62
7
  6
CONTINUOUS
  0
LAYER
  5
207
100
AcDbSymbolTableRecord
100
AcDbLayerTableRecord
  2
A_PUNKTE
 70
0
 62
7
  6
CONTINUOUS
  0
LAYER
  5
208
100
AcDbSymbolTableRecord
100
AcDbLayerTableRecord
  2
A_RUNDUNGEN
 70
0
 62
7
  6
CONTINUOUS
  0
LAYER
  5
209
100
AcDbSymbolTableRecord
100
AcDbLayerTableRecord
  2
BASISEBENEN
 70
0
 62
7
  6
CONTINUOUS
  0
LAYER
  5
20A
100
AcDbSymbolTableRecord
100
AcDbLayerTableRecord
  2
BEZUG_KURV
 70
0
 62
7
  6
CONTINUOUS
  0
LAYER
  5
20B
100
AcDbSymbolTableRecord
100
AcDbLayerTableRecord
  2
SCHRAUBENANSICHT_MONTIERT
 70
0
 62
7
  6
CONTINUOUS
  0
LAYER
  5
20C
100
AcDbSymbolTableRecord
100
AcDbLayerTableRecord
  2
SURF_NETZ
 70
0
 62
7
  6
CONTINUOUS
  0
LAYER
  5
20D
100
AcDbSymbolTableRecord
100
AcDbLayerTableRecord
  2
VORDERANS_PACK_MONTIERT
 70
0
 62
7
  6
CONTINUOUS
  0
LAYER
  5
20E
100
AcDbSymbolTableRecord
100
AcDbLayerTableRecord
  2
XSEC_DATUMS
 70
0
 62
7
  6
CONTINUOUS
  0
ENDTAB
  0
TABLE
  2
STYLE
  5
3
100
AcDbSymbolTable
 70
1
  0
STYLE
  5
11
100
AcDbSymbolTableRecord
100
AcDbTextStyleTableRecord
  2
STANDARD
 70
0
 40
0.0
 41
1.0
 50
0.0
 71
0
 42
0.2
  3
txt
  4

  0
STYLE
  5
20F
100
AcDbSymbolTableRecord
100
AcDbTextStyleTableRecord
  2
TEXTSTYLE_1
 70
0
 40
0.0
 41
0.8
 50
0.0
 71
0
 42
0.2
  3
gdt
  4

  0
ENDTAB
  0
TABLE
  2
VIEW
  5
6
100
AcDbSymbolTable
 70
0
  0
ENDTAB
  0
TABLE
  2
UCS
  5
7
100
AcDbSymbolTable
 70
0
  0
ENDTAB
  0
TABLE
  2
APPID
  5
9
100
AcDbSymbolTable
 70
1
  0
APPID
  5
210
100
AcDbSymbolTableRecord
100
AcDbRegAppTableRecord
  2
ACAD
 70
0
  0
ENDTAB
  0
TABLE
  2
BLOCK_RECORD
  5
1
100
AcDbSymbolTable
 70
0
  0
BLOCK_RECORD
  5
1F
100
AcDbSymbolTableRecord
100
AcDbBlockTableRecord
  2
*MODEL_SPACE
  0
BLOCK_RECORD
  5
1B
100
AcDbSymbolTableRecord
100
AcDbBlockTableRecord
  2
*PAPER_SPACE
  0
ENDTAB
  0
TABLE
  2
DIMSTYLE
  5
A
100
AcDbSymbolTable
 70
1
  0
DIMSTYLE
105
211
100
AcDbSymbolTableRecord
100
AcDbDimStyleTableRecord
  2
STANDARD
 70
0
  3

  4

  5
_ARROW_FILLED
  6
_ARROW_FILLED
  7
_ARROW_FILLED
 40
1.0
 41
3.5
 42
0.0
 43
0.38
 44
2.0
 45
0.0
 46
0.0
 47
0.01
 48
0.01
140
3.5
141
0.09
142
0.0
143
25.4
144
1.0
145
0.0
146
1.0
147
0.625
 71
1.0
 72
0.0
 73
0
 74
0
 75
0
 76
0
 77
1
 78
8
170
0
171
2
172
0
173
0
174
0
175
0
176
0
177
0
178
5
270
2
271
2
272
2
273
2
274
2
275
0
280
0
281
0
282
0
283
1
284
8
285
0
286
0
287
3
288
0
340
11
  0
ENDTAB
  0
ENDSEC
  0
SECTION
  2
BLOCKS
  0
BLOCK
  5
20
100
AcDbEntity
  8
0
100
AcDbBlockBegin
  2
*MODEL_SPACE
 70
0
 10
0.0
 20
0.0
 30
0.0
  3
*MODEL_SPACE
  1

  0
ENDBLK
  5
21
100
AcDbEntity
  8
0
100
AcDbBlockEnd
  0
BLOCK
  5
1C
100
AcDbEntity
  8
0
100
AcDbBlockBegin
  2
*PAPER_SPACE
 70
0
 10
0.0
 20
0.0
 30
0.0
  3
*PAPER_SPACE
  1

  0
ENDBLK
  5
1D
100
AcDbEntity
  8
0
100
AcDbBlockEnd
  0
ENDSEC
  0
SECTION
  2
ENTITIES
  0
HATCH
  5
212
100
AcDbEntity
  8
0
100
AcDbHatch
 62
2
  6
CONTINUOUS
 10
0.0
 20
0.0
 30
0.0
210
0.0
220
0.0
230
1.0
  2
A
 70
0
 71
0
 91
2
 92
1
 93
79
 72
1
 10
53.0530701136
 20
64.8893017749
 11
54.0954766799
 21
63.9082519432
 72
4
 94
3
 73
1
 74
0
 95
8
 96
4
 40
0.0
 40
0.0
 40
0.0
 40
0.0
 40
1.0
 40
1.0
 40
1.0
 40
1.0
 10
54.0954766799
 20
63.9082519432
 42
1.0
 10
54.1914566363
 20
63.81792143
 42
0.8047378541
 10
54.1954513959
 20
63.6861800337
 42
0.8047378541
 10
54.1051208828
 20
63.5902000773
 42
1.0
 72
1
 10
54.1051208828
 20
63.5902000773
 11
51.4378080927
 21
60.7560684392
 72
4
 94
3
 73
1
 74
0
 95
8
 96
4
 40
0.0
 40
0.0
 40
0.0
 40
0.0
 40
1.0
 40
1.0
 40
1.0
 40
1.0
 10
51.4474522956
 20
60.4380165734
 42
1.0
 10
51.3514723392
 20
60.5283470865
 42
0.8047378541
 10
51.3474775796
 20
60.6600884828
 42
0.8047378541
 10
51.4378080927
 20
60.7560684392
 42
1.0
 72
1
 10
51.4474522956
 20
60.4380165734
 11
51.7907376878
 21
60.1149371846
 72
2
 10
51.6365338102
 20
59.9510889924
 40
0.2250001466
 50
327.4149724674
 51
46.7368516237
 73
1
 72
4
 94
3
 73
1
 74
0
 95
8
 96
4
 40
0.0
 40
0.0
 40
0.0
 40
0.0
 40
1.0
 40
1.0
 40
1.0
 40
1.0
 10
47.9827022254
 20
46.8747538362
 42
1.0
 10
48.0200818174
 20
51.4993639059
 42
0.9739785404
 10
49.3354479538
 20
55.9331238743
 42
0.9739785404
 10
51.8261173946
 20
59.8299150244
 42
1.0
 72
2
 10
48.2326937498
 20
46.8727331175
 40
0.2499996911
 50
179.5368797593
 51
271.7368551719
 73
1
 72
1
 10
62.0009991362
 20
47.0401112116
 11
48.2402710402
 21
46.6228482835
 72
2
 10
62.0078186987
 20
46.8152148619
 40
0.2249997213
 50
359.2402859581
 51
91.7368554887
 73
1
 72
4
 94
3
 73
1
 74
0
 95
8
 96
4
 40
0.0
 40
0.0
 40
0.0
 40
0.0
 40
1.0
 40
1.0
 40
1.0
 40
1.0
 10
62.2340568393
 20
46.4681185331
 42
1.0
 10
62.2316970921
 20
46.5828103112
 42
0.9999046248
 10
62.2312776527
 20
46.6975255955
 42
0.9999046248
 10
62.2327986411
 20
46.8122315629
 42
1.0
 72
1
 10
62.2340568393
 20
46.4681185331
 11
62.4086133161
 21
46.374274251
 72
1
 10
62.4086133161
 20
46.374274251
 11
62.2400635455
 21
46.2700260488
 72
4
 94
3
 73
1
 74
0
 95
8
 96
4
 40
0.0
 40
0.0
 40
0.0
 40
0.0
 40
1.0
 40
1.0
 40
1.0
 40
1.0
 10
62.2596573855
 20
45.9264690058
 42
1.0
 10
62.2511891842
 20
46.0408720737
 42
0.9999046248
 10
62.2446572812
 20
46.1554020113
 42
0.9999046248
 10
62.2400635455
 20
46.2700260488
 42
1.0
 72
2
 10
62.0352715442
 20
45.9098597067
 40
0.2249997213
 50
271.7368097462
 51
4.2333792769
 73
1
 72
1
 10
48.2813628312
 20
45.2677004235
 11
62.0420909272
 21
45.6849633515
 72
2
 10
48.2889399249
 20
45.0178155836
 40
0.2499996911
 50
91.7368100631
 51
183.9367854756
 73
1
 72
4
 94
3
 73
1
 74
0
 95
8
 96
4
 40
0.0
 40
0.0
 40
0.0
 40
0.0
 40
1.0
 40
1.0
 40
1.0
 40
1.0
 10
48.0395301316
 20
45.0006516504
 42
1.0
 10
48.4440904375
 20
39.1219360247
 42
0.9585923417
 10
50.8630656439
 20
33.7487130254
 42
0.9585923417
 10
54.9959634547
 20
29.5484603979
 42
1.0
 72
2
 10
55.1741630208
 20
29.723802236
 40
0.2499996911
 50
224.5368797593
 51
316.7368551719
 73
1
 72
1
 10
64.7914709396
 20
39.5778185256
 11
55.3562162348
 21
29.5524649288
 72
2
 10
64.9553188325
 20
39.4236149505
 40
0.2249997213
 50
44.2402859581
 51
136.7368554887
 73
1
 72
4
 94
3
 73
1
 74
0
 95
8
 96
4
 40
0.0
 40
0.0
 40
0.0
 40
0.0
 40
1.0
 40
1.0
 40
1.0
 40
1.0
 10
65.3607275237
 20
39.3381553061
 42
1.0
 10
65.2779595963
 20
39.4175860469
 42
0.9999046248
 10
65.1965470525
 20
39.4984054139
 42
0.9999046248
 10
65.1165131863
 20
39.5805902825
 42
1.0
 72
1
 10
65.3607275237
 20
39.3381553061
 11
65.5505155203
 21
39.3952274464
 72
1
 10
65.5505155203
 20
39.3952274464
 11
65.5050474453
 21
39.2023301498
 72
4
 94
3
 73
1
 74
0
 95
8
 96
4
 40
0.0
 40
0.0
 40
0.0
 40
0.0
 40
1.0
 40
1.0
 40
1.0
 40
1.0
 10
65.7618338972
 20
38.9732535721
 42
1.0
 10
65.6749507896
 20
39.0481608347
 42
0.9999046248
 10
65.5893471412
 20
39.1245269773
 42
0.9999046248
 10
65.5050474453
 20
39.2023301498
 42
1.0
 72
2
 10
65.6149136953
 20
38.8028442742
 40
0.2249997213
 50
316.7368097462
 51
49.2333792769
 73
1
 72
1
 10
56.3435067603
 20
28.6232869716
 11
65.7787614651
 21
38.6486405683
 72
2
 10
56.5255598394
 20
28.4519495211
 40
0.2499996911
 50
136.7368100631
 51
228.9367854756
 73
1
 72
4
 94
3
 73
1
 74
0
 95
8
 96
4
 40
0.0
 40
0.0
 40
0.0
 40
0.0
 40
1.0
 40
1.0
 40
1.0
 40
1.0
 10
56.3613372168
 20
28.2634534315
 42
1.0
 10
60.8042842361
 20
24.3926410835
 42
0.9585923417
 10
66.3142004277
 20
22.3036724358
 42
0.9585923417
 10
72.2066276113
 20
22.2560453882
 42
1.0
 72
2
 10
72.2086483301
 20
22.5060369126
 40
0.2499996911
 50
269.5368797593
 51
1.7368551719
 73
1
 72
1
 10
72.041270236
 20
36.274342299
 11
72.458533164
 21
22.513614203
 72
2
 10
72.2661665857
 20
36.2811618615
 40
0.2249997213
 50
89.2402859581
 51
181.7368554887
 73
1
 72
4
 94
3
 73
1
 74
0
 95
8
 96
4
 40
0.0
 40
0.0
 40
0.0
 40
0.0
 40
1.0
 40
1.0
 40
1.0
 40
1.0
 10
72.6132629145
 20
36.5074000021
 42
1.0
 10
72.4985711364
 20
36.5050402549
 42
0.9999046248
 10
72.3838558521
 20
36.5046208155
 42
0.9999046248
 10
72.2691498847
 20
36.5061418039
 42
1.0
 72
1
 10
72.6132629145
 20
36.5074000021
 11
72.7071071965
 21
36.6819564789
 72
1
 10
72.7071071965
 20
36.6819564789
 11
72.8113553988
 21
36.5134067083
 72
4
 94
3
 73
1
 74
0
 95
8
 96
4
 40
0.0
 40
0.0
 40
0.0
 40
0.0
 40
1.0
 40
1.0
 40
1.0
 40
1.0
 10
73.1549124418
 20
36.5330005483
 42
1.0
 10
73.0405093739
 20
36.524532347
 42
0.9999046248
 10
72.9259794363
 20
36.5180004441
 42
0.9999046248
 10
72.8113553988
 20
36.5134067083
 42
1.0
 72
2
 10
73.1715217409
 20
36.3086147071
 40
0.2249997213
 50
1.7368097462
 51
94.2333792769
 73
1
 72
1
 10
73.8136810241
 20
22.554705994
 11
73.396418096
 21
36.31543409
 72
2
 10
74.063565864
 20
22.5622830877
 40
0.2499996911
 50
181.7368100631
 51
273.9367854756
 73
1
 72
4
 94
3
 73
1
 74
0
 95
8
 96
4
 40
0.0
 40
0.0
 40
0.0
 40
0.0
 40
1.0
 40
1.0
 40
1.0
 40
1.0
 10
74.0807297972
 20
22.3128732944
 42
1.0
 10
79.9594454229
 20
22.7174336003
 42
0.9585923417
 10
85.3326684222
 20
25.1364088067
 42
0.9585923417
 10
89.5329210497
 20
29.2693066176
 42
1.0
 72
2
 10
89.3575792115
 20
29.4475061836
 40
0.2499996911
 50
314.5368797593
 51
46.7368551719
 73
1
 72
1
 10
79.503562922
 20
39.0648141024
 11
89.5289165187
 21
29.6295593976
 72
2
 10
79.657766497
 20
39.2286619953
 40
0.2249997213
 50
134.2402859581
 51
226.7368554887
 73
1
 72
4
 94
3
 73
1
 74
0
 95
8
 96
4
 40
0.0
 40
0.0
 40
0.0
 40
0.0
 40
1.0
 40
1.0
 40
1.0
 40
1.0
 10
79.7432261414
 20
39.6340706865
 42
1.0
 10
79.6637954007
 20
39.5513027592
 42
0.9999046248
 10
79.5829760337
 20
39.4698902153
 42
0.9999046248
 10
79.500791165
 20
39.3898563491
 42
1.0
 72
1
 10
79.7432261414
 20
39.6340706865
 11
79.6861540012
 21
39.8238586831
 72
1
 10
79.6861540012
 20
39.8238586831
 11
79.8790512978
 21
39.7783906081
 72
4
 94
3
 73
1
 74
0
 95
8
 96
4
 40
0.0
 40
0.0
 40
0.0
 40
0.0
 40
1.0
 40
1.0
 40
1.0
 40
1.0
 10
80.1081278754
 20
40.03517706
 42
1.0
 10
80.0332206129
 20
39.9482939524
 42
0.9999046248
 10
79.9568544702
 20
39.862690304
 42
0.9999046248
 10
79.8790512978
 20
39.7783906081
 42
1.0
 72
2
 10
80.2785371734
 20
39.8882568581
 40
0.2249997213
 50
46.7368097462
 51
139.2333792769
 73
1
 72
1
 10
90.458094476
 20
30.6168499231
 11
80.4327408792
 21
40.0521046279
 72
2
 10
90.6294319265
 20
30.7989030022
 40
0.2499996911
 50
226.736810063
 51
318.9367854756
 73
1
 72
4
 94
3
 73
1
 74
0
 95
8
 96
4
 40
0.0
 40
0.0
 40
0.0
 40
0.0
 40
1.0
 40
1.0
 40
1.0
 40
1.0
 10
90.8179280161
 20
30.6346803796
 42
1.0
 10
94.6887403641
 20
35.0776273989
 42
0.9585923417
 10
96.7777090117
 20
40.5875435905
 42
0.9585923417
 10
96.8253360593
 20
46.4799707741
 42
1.0
 72
2
 10
96.575344535
 20
46.4819914929
 40
0.2499996911
 50
359.5368797593
 51
91.7368551719
 73
1
 72
1
 10
82.8070391486
 20
46.3146133988
 11
96.5677672446
 21
46.7318763268
 72
2
 10
82.8002195861
 20
46.5395097485
 40
0.2249997213
 50
179.2402859581
 51
271.7368554887
 73
1
 72
4
 94
3
 73
1
 74
0
 95
8
 96
4
 40
0.0
 40
0.0
 40
0.0
 40
0.0
 40
1.0
 40
1.0
 40
1.0
 40
1.0
 10
82.5739814454
 20
46.8866060773
 42
1.0
 10
82.5763411926
 20
46.7719142992
 42
0.9999046248
 10
82.576760632
 20
46.6571990149
 42
0.9999046248
 10
82.5752396436
 20
46.5424930475
 42
1.0
 72
1
 10
82.5739814454
 20
46.8866060773
 11
82.3994249686
 21
46.9804503593
 72
1
 10
82.3994249686
 20
46.9804503593
 11
82.5679747393
 21
47.0846985616
 72
4
 94
3
 73
1
 74
0
 95
8
 96
4
 40
0.0
 40
0.0
 40
0.0
 40
0.0
 40
1.0
 40
1.0
 40
1.0
 40
1.0
 10
82.5483808993
 20
47.4282556046
 42
1.0
 10
82.5568491005
 20
47.3138525367
 42
0.9999046248
 10
82.5633810035
 20
47.1993225991
 42
0.9999046248
 10
82.5679747393
 20
47.0846985616
 42
1.0
 72
2
 10
82.7727667405
 20
47.4448649037
 40
0.2249997213
 50
91.7368097462
 51
184.2333792769
 73
1
 72
1
 10
96.5266754535
 20
48.0870241869
 11
82.7659473575
 21
47.6697612588
 72
2
 10
96.5190983599
 20
48.3369090268
 40
0.2499996911
 50
271.7368100631
 51
3.9367854756
 73
1
 72
4
 94
3
 73
1
 74
0
 95
8
 96
4
 40
0.0
 40
0.0
 40
0.0
 40
0.0
 40
1.0
 40
1.0
 40
1.0
 40
1.0
 10
96.7685081531
 20
48.35407296
 42
1.0
 10
96.3639478473
 20
54.2327885857
 42
0.9585923417
 10
93.9449726408
 20
59.606011585
 42
0.9585923417
 10
89.81207483
 20
63.8062642125
 42
1.0
 72
2
 10
89.633875264
 20
63.6309223743
 40
0.2499996911
 50
44.5368797593
 51
136.7368551719
 73
1
 72
1
 10
80.0165673452
 20
53.7769060848
 11
89.45182205
 21
63.8022596815
 72
2
 10
79.8527194523
 20
53.9311096599
 40
0.2249997213
 50
224.2402859581
 51
316.7368554887
 73
1
 72
4
 94
3
 73
1
 74
0
 95
8
 96
4
 40
0.0
 40
0.0
 40
0.0
 40
0.0
 40
1.0
 40
1.0
 40
1.0
 40
1.0
 10
79.4473107611
 20
54.0165693042
 42
1.0
 10
79.5300786884
 20
53.9371385635
 42
0.9999046248
 10
79.6114912323
 20
53.8563191965
 42
0.9999046248
 10
79.6915250985
 20
53.7741343278
 42
1.0
 72
1
 10
79.4473107611
 20
54.0165693042
 11
79.2575227645
 21
53.959497164
 72
1
 10
79.2575227645
 20
53.959497164
 11
79.3029908395
 21
54.1523944606
 72
4
 94
3
 73
1
 74
0
 95
8
 96
4
 40
0.0
 40
0.0
 40
0.0
 40
0.0
 40
1.0
 40
1.0
 40
1.0
 40
1.0
 10
79.0462043875
 20
54.3814710382
 42
1.0
 10
79.1330874951
 20
54.3065637757
 42
0.9999046248
 10
79.2186911436
 20
54.230197633
 42
0.9999046248
 10
79.3029908395
 20
54.1523944606
 42
1.0
 72
2
 10
79.1931245895
 20
54.5518803362
 40
0.2249997213
 50
136.7368097462
 51
229.2333792769
 73
1
 72
1
 10
88.4645315245
 20
64.7314376388
 11
79.0292768197
 21
54.7060840421
 72
2
 10
88.2824784454
 20
64.9027750893
 40
0.2499996911
 50
316.7368100631
 51
48.9367854756
 73
1
 72
4
 94
3
 73
1
 74
0
 95
8
 96
4
 40
0.0
 40
0.0
 40
0.0
 40
0.0
 40
1.0
 40
1.0
 40
1.0
 40
1.0
 10
88.4467010679
 20
65.0912711789
 42
1.0
 10
84.358395537
 20
68.6531105308
 42
0.9646596698
 10
79.3425205745
 20
70.7127075894
 42
0.9646596698
 10
73.9308642121
 20
71.0517018348
 42
1.0
 72
1
 10
76.6799539103
 20
73.272856983
 11
73.9308642121
 21
71.0517018348
 72
2
 10
76.8370269315
 20
73.0784497227
 40
0.249974043
 50
104.6242574422
 51
128.9367766544
 73
1
 72
1
 10
76.7739234436
 20
73.3202879554
 11
76.9086077193
 21
73.3554316549
 72
2
 10
76.9717228375
 20
73.113549621
 40
0.2499924713
 50
80.1970739089
 51
104.6243020685
 73
1
 72
4
 94
3
 73
1
 74
0
 95
11
 96
7
 40
0.0
 40
0.0
 40
0.0
 40
0.0
 40
1.0
 40
1.0
 40
1.0
 40
2.0
 40
2.0
 40
2.0
 40
2.0
 10
77.0142862581
 20
73.3598905366
 42
1.0
 10
111.5294516373
 20
67.3962827943
 42
0.4991764259
 10
114.3394687286
 20
32.4826026331
 42
0.4991764259
 10
81.2223691236
 20
21.0756322991
 42
1.0
 10
48.1052695186
 20
9.668661965
 42
0.4991764259
 10
28.8185257776
 20
38.9070404139
 42
0.4991764259
 10
52.3399056978
 20
64.860960062
 42
1.0
 72
2
 10
52.7103946348
 20
64.5251949655
 40
0.5000002524
 50
46.7368129966
 51
137.8147502568
 73
1
 97
0
 92
1
 93
7
 72
4
 94
3
 73
1
 74
0
 95
8
 96
4
 40
0.0
 40
0.0
 40
0.0
 40
0.0
 40
1.0
 40
1.0
 40
1.0
 40
1.0
 10
59.5228119559
 20
70.4951366999
 42
1.0
 10
60.9924665936
 20
71.289960161
 42
0.9971546068
 10
62.5292051045
 20
71.9457526873
 42
0.9971546068
 10
64.1199096129
 20
72.4569163161
 42
1.0
 72
2
 10
64.1964282086
 20
72.2188996226
 40
0.2498810375
 50
28.4628687399
 51
107.8217791918
 73
1
 72
1
 10
64.4160395641
 20
72.3379546557
 11
64.5001443809
 21
72.1827699996
 72
2
 10
64.2805199335
 20
72.0636946801
 40
0.2499288438
 50
309.5449997262
 51
28.4655260049
 73
1
 72
1
 10
64.4396137934
 20
71.8710069422
 11
61.9811294707
 21
69.84173306
 72
4
 94
3
 73
1
 74
0
 95
8
 96
4
 40
0.0
 40
0.0
 40
0.0
 40
0.0
 40
1.0
 40
1.0
 40
1.0
 40
1.0
 10
61.9811294707
 20
69.84173306
 42
1.0
 10
61.2249409846
 20
70.0718554872
 42
0.9871920586
 10
60.438388915
 20
70.1500424408
 42
0.9871920586
 10
59.6516956002
 20
70.0732896792
 42
1.0
 72
2
 10
59.6298460378
 20
70.2972260739
 40
0.224999802
 50
118.4054220764
 51
275.5727323877
 73
1
 97
0
 75
0
 76
0
 52
45.0
 41
100.0
 77
0
 78
1
 53
45.0
 43
0.0
 44
0.0
 45
-70.7106781187
 46
70.7106781187
 79
0
 98
1
 10
0.0
 20
0.0
  0
HATCH
  5
213
100
AcDbEntity
  8
0
100
AcDbHatch
 62
2
  6
CONTINUOUS
 10
0.0
 20
0.0
 30
0.0
210
0.0
220
0.0
230
1.0
  2
default__1
 70
0
 71
0
 91
1
 92
1
 93
8
 72
1
 10
94.8040191424
 20
26.6773623052
 11
183.8040191424
 21
26.6773623052
 72
1
 10
94.8040191424
 20
26.6773623052
 11
94.8040191424
 21
30.1773623052
 72
1
 10
102.3040191424
 20
30.1773623052
 11
94.8040191424
 21
30.1773623052
 72
1
 10
102.3040191424
 20
63.1773623052
 11
102.3040191424
 21
30.1773623052
 72
1
 10
102.3040191424
 20
63.1773623052
 11
94.8040191424
 21
63.1773623052
 72
1
 10
94.8040191424
 20
63.1773623052
 11
94.8040191424
 21
66.6773623052
 72
1
 10
183.8040191424
 20
66.6773623052
 11
94.8040191424
 21
66.6773623052
 72
1
 10
183.8040191424
 20
26.6773623052
 11
183.8040191424
 21
66.6773623052
 97
0
 75
0
 76
0
 52
165.0
 41
100.0
 77
0
 78
1
 53
165.0
 43
0.0
 44
0.0
 45
-25.8819045103
 46
-96.5925826289
 79
0
 98
1
 10
0.0
 20
0.0
  0
HATCH
  5
214
100
AcDbEntity
  8
0
100
AcDbHatch
 62
2
  6
CONTINUOUS
 10
0.0
 20
0.0
 30
0.0
210
0.0
220
0.0
230
1.0
  2
default__2
 70
0
 71
0
 91
2
 92
1
 93
10
 72
1
 10
66.1812332726
 20
48.5553761547
 11
66.8560881257
 21
50.7915030315
 72
4
 94
3
 73
1
 74
0
 95
11
 96
7
 40
0.0
 40
0.0
 40
0.0
 40
0.0
 40
1.0
 40
1.0
 40
1.0
 40
2.0
 40
2.0
 40
2.0
 40
2.0
 10
66.1812332726
 20
48.5553761547
 42
1.0
 10
63.3593894769
 20
39.205216302
 42
0.4381650262
 10
72.1494980473
 20
34.948188818
 42
0.4381650262
 10
77.7357877278
 20
42.9595344781
 42
1.0
 10
83.3220774082
 20
50.9708801382
 42
0.4381650262
 10
76.2888294493
 20
57.7474364042
 42
0.4381650262
 10
68.4906179
 20
51.8672843389
 42
1.0
 72
1
 10
66.3834018464
 20
54.6618577417
 11
68.4906179
 21
51.8672843389
 72
4
 94
3
 73
1
 74
0
 95
11
 96
7
 40
0.0
 40
0.0
 40
0.0
 40
0.0
 40
1.0
 40
1.0
 40
1.0
 40
2.0
 40
2.0
 40
2.0
 40
2.0
 10
62.8305024197
 20
49.5666143814
 42
1.0
 10
58.4892042724
 20
35.1817530695
 42
0.4381650262
 10
72.0124482269
 20
28.6324800173
 42
0.4381650262
 10
80.606740043
 20
40.9576271866
 42
1.0
 10
89.2010318591
 20
53.282774356
 42
0.4381650262
 10
78.3806503838
 20
63.7082455345
 42
0.4381650262
 10
66.3834018464
 20
54.6618577417
 42
1.0
 72
1
 10
62.8305024197
 20
49.5666143814
 11
63.5053572727
 21
51.8027412582
 72
4
 94
3
 73
1
 74
0
 95
8
 96
4
 40
0.0
 40
0.0
 40
0.0
 40
0.0
 40
1.0
 40
1.0
 40
1.0
 40
1.0
 10
63.5053572727
 20
51.8027412582
 42
1.0
 10
63.6025478507
 20
52.1247815644
 42
0.9232425777
 10
63.5385259032
 20
52.455019596
 42
0.9232425777
 10
63.3280339091
 20
52.7174106929
 42
1.0
 72
1
 10
63.3280339091
 20
52.7174106929
 11
58.4100935787
 21
58.8479229873
 72
1
 10
58.4100935787
 20
58.8479229873
 11
61.1401926587
 21
61.0380277823
 72
1
 10
66.0581329891
 20
54.9075154879
 11
61.1401926587
 21
61.0380277823
 72
4
 94
3
 73
1
 74
0
 95
8
 96
4
 40
0.0
 40
0.0
 40
0.0
 40
0.0
 40
1.0
 40
1.0
 40
1.0
 40
1.0
 10
66.8560881257
 20
50.7915030315
 42
1.0
 10
67.2934457266
 20
52.2406844096
 42
0.9232425777
 10
67.0053469625
 20
53.726755552
 42
0.9232425777
 10
66.0581329891
 20
54.9075154879
 42
1.0
 97
0
 92
1
 93
4
 72
1
 10
52.9348315911
 20
65.6731706874
 11
55.6649306712
 21
67.8632754824
 72
1
 10
57.3857272958
 20
65.7181976338
 11
55.6649306712
 21
67.8632754824
 72
1
 10
54.6556282158
 20
63.5280928388
 11
57.3857272958
 21
65.7181976338
 72
1
 10
54.6556282158
 20
63.5280928388
 11
52.9348315911
 21
65.6731706874
 97
0
 75
0
 76
0
 52
325.0
 41
100.0
 77
0
 78
1
 53
325.0
 43
0.0
 44
0.0
 45
57.3576436351
 46
81.9152044289
 79
0
 98
1
 10
0.0
 20
0.0
  0
HATCH
  5
215
100
AcDbEntity
  8
0
100
AcDbHatch
 62
2
  6
CONTINUOUS
 10
0.0
 20
0.0
 30
0.0
210
0.0
220
0.0
230
1.0
  2
default__3
 70
0
 71
0
 91
1
 92
1
 93
28
 72
1
 10
13.112477819
 20
41.2528930586
 11
13.1124778796
 21
29.2528930586
 72
1
 10
14.712477819
 20
41.2528930667
 11
13.112477819
 21
41.2528930586
 72
1
 10
14.7124778796
 20
29.2528930667
 11
14.712477819
 21
41.2528930667
 72
4
 94
3
 73
1
 74
0
 95
8
 96
4
 40
0.0
 40
0.0
 40
0.0
 40
0.0
 40
1.0
 40
1.0
 40
1.0
 40
1.0
 10
14.7124778796
 20
29.2528930667
 42
1.0
 10
14.7124778838
 20
28.4327920541
 42
0.8047378541
 10
15.292376874
 20
27.8528930697
 42
0.8047378541
 10
16.1124778867
 20
27.8528930738
 42
1.0
 72
1
 10
40.1124778867
 20
27.8528931952
 11
16.1124778867
 21
27.8528930738
 72
4
 94
3
 73
1
 74
0
 95
8
 96
4
 40
0.0
 40
0.0
 40
0.0
 40
0.0
 40
1.0
 40
1.0
 40
1.0
 40
1.0
 10
40.1124778867
 20
27.8528931952
 42
1.0
 10
40.9325788994
 20
27.8528931993
 42
0.8047378541
 10
41.5124778838
 20
28.4327921896
 42
0.8047378541
 10
41.5124778796
 20
29.2528932022
 42
1.0
 72
1
 10
41.5124776268
 20
79.2528932022
 11
41.5124778796
 21
29.2528932022
 72
4
 94
3
 73
1
 74
0
 95
8
 96
4
 40
0.0
 40
0.0
 40
0.0
 40
0.0
 40
1.0
 40
1.0
 40
1.0
 40
1.0
 10
45.5124776066
 20
83.2528932225
 42
1.0
 10
43.1693318561
 20
83.2528932106
 42
0.8047378541
 10
41.512477615
 20
81.5960389528
 42
0.8047378541
 10
41.5124776268
 20
79.2528932022
 42
1.0
 72
1
 10
51.5124776066
 20
83.2528932528
 11
45.5124776066
 21
83.2528932225
 72
4
 94
3
 73
1
 74
0
 95
8
 96
4
 40
0.0
 40
0.0
 40
0.0
 40
0.0
 40
1.0
 40
1.0
 40
1.0
 40
1.0
 10
55.4778258217
 20
78.7275231993
 42
1.0
 10
55.8187441596
 20
81.3006807419
 42
0.7726908141
 10
54.1081210821
 20
83.2528932659
 42
0.7726908141
 10
51.5124776066
 20
83.2528932528
 42
1.0
 72
1
 10
54.8194080161
 20
73.7579672842
 11
55.4778258217
 21
78.7275231993
 72
4
 94
3
 73
1
 74
0
 95
11
 96
7
 40
0.0
 40
0.0
 40
0.0
 40
0.0
 40
1.0
 40
1.0
 40
1.0
 40
2.0
 40
2.0
 40
2.0
 40
2.0
 10
54.8194080161
 20
73.7579672842
 42
1.0
 10
54.7545932411
 20
73.2687632468
 42
0.7889613615
 10
55.0674173832
 20
72.8871055449
 42
0.7889613615
 10
55.5598264994
 20
72.8546277439
 42
1.0
 10
56.0522356157
 20
72.8221499429
 42
0.7889613615
 10
56.4124776576
 20
73.1594142554
 42
0.7889613615
 10
56.4124776551
 20
73.6528932776
 42
1.0
 72
1
 10
56.4124775282
 20
98.7528932776
 11
56.4124776551
 21
73.6528932776
 72
4
 94
3
 73
1
 74
0
 95
8
 96
4
 40
0.0
 40
0.0
 40
0.0
 40
0.0
 40
1.0
 40
1.0
 40
1.0
 40
1.0
 10
56.4124775282
 20
98.7528932776
 42
1.0
 10
56.4124775255
 20
99.2801010715
 42
0.8047378541
 10
56.0396853175
 20
99.6528932757
 42
0.8047378541
 10
55.5124775237
 20
99.652893273
 42
1.0
 72
1
 10
43.2124775237
 20
99.6528932108
 11
55.5124775237
 21
99.652893273
 72
1
 10
43.2124775156
 20
101.2528932108
 11
43.2124775237
 21
99.6528932108
 72
1
 10
55.5124775156
 20
101.252893273
 11
43.2124775156
 21
101.2528932108
 72
4
 94
3
 73
1
 74
0
 95
8
 96
4
 40
0.0
 40
0.0
 40
0.0
 40
0.0
 40
1.0
 40
1.0
 40
1.0
 40
1.0
 10
58.0124775282
 20
98.7528932857
 42
1.0
 10
58.0124775208
 20
100.2173593797
 42
0.8047378541
 10
56.9769436096
 20
101.2528932804
 42
0.8047378541
 10
55.5124775156
 20
101.252893273
 42
1.0
 72
1
 10
58.0124776551
 20
73.6528932857
 11
58.0124775282
 21
98.7528932857
 72
4
 94
3
 73
1
 74
0
 95
11
 96
7
 40
0.0
 40
0.0
 40
0.0
 40
0.0
 40
1.0
 40
1.0
 40
1.0
 40
2.0
 40
2.0
 40
2.0
 40
2.0
 10
53.2332687382
 20
73.9681153056
 42
1.0
 10
53.038824413
 20
72.5005031933
 42
0.7889613615
 10
53.9772968394
 20
71.3555300877
 42
0.7889613615
 10
55.4545241881
 20
71.2580966846
 42
1.0
 10
56.9317515368
 20
71.1606632816
 42
0.7889613615
 10
58.0124776626
 20
72.1724562192
 42
0.7889613615
 10
58.0124776551
 20
73.6528932857
 42
1.0
 72
1
 10
53.8916865438
 20
78.9376712207
 11
53.2332687382
 21
73.9681153056
 72
4
 94
3
 73
1
 74
0
 95
8
 96
4
 40
0.0
 40
0.0
 40
0.0
 40
0.0
 40
1.0
 40
1.0
 40
1.0
 40
1.0
 10
53.8916865438
 20
78.9376712207
 42
1.0
 10
54.0962375465
 20
80.4815657463
 42
0.7726908141
 10
53.0698637
 20
81.6528932607
 42
0.7726908141
 10
51.5124776147
 20
81.6528932528
 42
1.0
 72
1
 10
45.5124776147
 20
81.6528932225
 11
51.5124776147
 21
81.6528932528
 72
4
 94
3
 73
1
 74
0
 95
8
 96
4
 40
0.0
 40
0.0
 40
0.0
 40
0.0
 40
1.0
 40
1.0
 40
1.0
 40
1.0
 10
45.5124776147
 20
81.6528932225
 42
1.0
 10
44.1065901644
 20
81.6528932154
 42
0.8047378541
 10
43.1124776197
 20
80.6587806606
 42
0.8047378541
 10
43.1124776268
 20
79.2528932103
 42
1.0
 72
1
 10
43.1124778796
 20
29.2528932103
 11
43.1124776268
 21
79.2528932103
 72
4
 94
3
 73
1
 74
0
 95
8
 96
4
 40
0.0
 40
0.0
 40
0.0
 40
0.0
 40
1.0
 40
1.0
 40
1.0
 40
1.0
 10
40.1124778948
 20
26.2528931952
 42
1.0
 10
41.8698372077
 20
26.2528932041
 42
0.8047378541
 10
43.1124778885
 20
27.4955338975
 42
0.8047378541
 10
43.1124778796
 20
29.2528932103
 42
1.0
 72
1
 10
16.1124778948
 20
26.2528930738
 11
40.1124778948
 21
26.2528931952
 72
4
 94
3
 73
1
 74
0
 95
8
 96
4
 40
0.0
 40
0.0
 40
0.0
 40
0.0
 40
1.0
 40
1.0
 40
1.0
 40
1.0
 10
13.1124778796
 20
29.2528930586
 42
1.0
 10
13.1124778885
 20
27.4955337458
 42
0.8047378541
 10
14.3551185819
 20
26.2528930649
 42
0.8047378541
 10
16.1124778948
 20
26.2528930738
 42
1.0
 97
0
 75
0
 76
0
 52
205.0
 41
100.0
 77
0
 78
1
 53
205.0
 43
0.0
 44
0.0
 45
42.2618261741
 46
-90.6307787037
 79
0
 98
1
 10
0.0
 20
0.0
  0
HATCH
  5
216
100
AcDbEntity
  8
0
100
AcDbHatch
 62
2
  6
CONTINUOUS
 10
0.0
 20
0.0
 30
0.0
210
0.0
220
0.0
230
1.0
  2
default__4
 70
0
 71
0
 91
1
 92
1
 93
4
 72
4
 94
3
 73
1
 74
0
 95
11
 96
7
 40
0.0
 40
0.0
 40
0.0
 40
0.0
 40
1.0
 40
1.0
 40
1.0
 40
2.0
 40
2.0
 40
2.0
 40
2.0
 10
66.8287446115
 20
43.8175256304
 42
1.0
 10
68.999194036
 20
39.5862170722
 42
0.717710532
 10
73.7077946484
 20
38.9199565436
 42
0.717710532
 10
76.9669813634
 20
42.382979035
 42
1.0
 10
80.2261680783
 20
45.8460015265
 42
0.717710532
 10
79.2758386444
 20
50.5055827079
 42
0.717710532
 10
74.9207970326
 20
52.4156705012
 42
1.0
 72
1
 10
66.8287446115
 20
43.8175256304
 11
67.7460413283
 21
44.7921918399
 72
4
 94
3
 73
1
 74
0
 95
11
 96
7
 40
0.0
 40
0.0
 40
0.0
 40
0.0
 40
1.0
 40
1.0
 40
1.0
 40
2.0
 40
2.0
 40
2.0
 40
2.0
 10
67.7460413283
 20
44.7921918399
 42
1.0
 10
69.2730500885
 20
41.019178705
 42
0.6929904392
 10
73.2737068122
 20
40.2694256461
 42
0.6929904392
 10
76.0632919089
 20
43.2334767351
 42
1.0
 10
78.8528770057
 20
46.1975278241
 42
0.6929904392
 10
77.8621025897
 20
50.1454069924
 42
0.6929904392
 10
74.0035003158
 20
51.4410042917
 42
1.0
 72
1
 10
74.0035003158
 20
51.4410042917
 11
74.9207970326
 21
52.4156705012
 97
0
 75
0
 76
0
 52
85.0
 41
100.0
 77
0
 78
1
 53
85.0
 43
0.0
 44
0.0
 45
-99.6194698092
 46
8.7155742748
 79
0
 98
1
 10
0.0
 20
0.0
  0
HATCH
  5
217
100
AcDbEntity
  8
0
100
AcDbHatch
 62
2
  6
CONTINUOUS
 10
0.0
 20
0.0
 30
0.0
210
0.0
220
0.0
230
1.0
  2
default__5
 70
0
 71
0
 91
1
 92
1
 93
13
 72
1
 10
55.1124776824
 20
68.252893271
 11
46.6124776824
 21
68.252893228
 72
4
 94
3
 73
1
 74
0
 95
8
 96
4
 40
0.0
 40
0.0
 40
0.0
 40
0.0
 40
1.0
 40
1.0
 40
1.0
 40
1.0
 10
46.6124776824
 20
68.252893228
 42
1.0
 10
46.3195844636
 20
68.2528932266
 42
0.8047378541
 10
46.1124776835
 20
68.0457864443
 42
0.8047378541
 10
46.112477685
 20
67.7528932255
 42
1.0
 72
1
 10
46.112477685
 20
67.7528932255
 11
46.112477733
 21
58.2528932255
 72
1
 10
44.1124777431
 20
56.2528932154
 11
46.112477733
 21
58.2528932255
 72
1
 10
44.1124777431
 20
56.2528932154
 11
43.1124777431
 21
56.2528932103
 72
1
 10
43.112477685
 20
67.7528932103
 11
43.1124777431
 21
56.2528932103
 72
4
 94
3
 73
1
 74
0
 95
8
 96
4
 40
0.0
 40
0.0
 40
0.0
 40
0.0
 40
1.0
 40
1.0
 40
1.0
 40
1.0
 10
46.6124776673
 20
71.252893228
 42
1.0
 10
44.5622251356
 20
71.2528932177
 42
0.8047378541
 10
43.1124776746
 20
69.803145742
 42
0.8047378541
 10
43.112477685
 20
67.7528932103
 42
1.0
 72
1
 10
55.1124776673
 20
71.252893271
 11
46.6124776673
 21
71.252893228
 72
4
 94
3
 73
1
 74
0
 95
8
 96
4
 40
0.0
 40
0.0
 40
0.0
 40
0.0
 40
1.0
 40
1.0
 40
1.0
 40
1.0
 10
57.842576765
 20
69.942998066
 42
1.0
 10
57.1666309849
 20
70.7856056694
 42
0.9343961371
 10
56.1927046206
 20
71.2528932765
 42
0.9343961371
 10
55.1124776673
 20
71.252893271
 42
1.0
 72
1
 10
59.7258122216
 20
67.5954303153
 11
57.842576765
 21
69.942998066
 72
1
 10
59.7258122216
 20
67.5954303153
 11
57.3857272958
 21
65.7181976338
 72
1
 10
57.3857272958
 20
65.7181976338
 11
55.5024918393
 21
68.0657653846
 72
4
 94
3
 73
1
 74
0
 95
8
 96
4
 40
0.0
 40
0.0
 40
0.0
 40
0.0
 40
1.0
 40
1.0
 40
1.0
 40
1.0
 10
55.5024918393
 20
68.0657653846
 42
1.0
 10
55.4059281564
 20
68.1861378993
 42
0.9343961371
 10
55.2667958186
 20
68.2528932718
 42
0.9343961371
 10
55.1124776824
 20
68.252893271
 42
1.0
 97
0
 75
0
 76
0
 52
45.0
 41
100.0
 77
0
 78
1
 53
45.0
 43
0.0
 44
0.0
 45
-70.7106781187
 46
70.7106781187
 79
0
 98
1
 10
0.0
 20
0.0
  0
LINE
  5
218
100
AcDbEntity
  8
0
100
AcDbLine
 62
7
  6
CONTINUOUS
 10
13.112477819
 20
41.2528930586
 11
13.1124778796
 21
29.2528930586
  0
LINE
  5
219
100
AcDbEntity
  8
0
100
AcDbLine
 62
7
  6
CONTINUOUS
 10
14.7124778796
 20
29.2528930667
 11
14.712477819
 21
41.2528930667
  0
LINE
  5
21A
100
AcDbEntity
  8
A_RUNDUNGEN
100
AcDbLine
 62
7
  6
CONTINUOUS
 10
18.7624778244
 20
40.170706121
 11
18.7624778276
 21
39.5350800542
  0
LINE
  5
21B
100
AcDbEntity
  8
A_RUNDUNGEN
100
AcDbLine
 62
7
  6
CONTINUOUS
 10
19.8624778556
 20
33.9955337799
 11
19.8624778405
 21
36.996657044
  0
LINE
  5
21C
100
AcDbEntity
  8
A_RUNDUNGEN
100
AcDbLine
 62
7
  6
CONTINUOUS
 10
19.8624778116
 20
42.7091202847
 11
19.8624777964
 21
45.7102524057
  0
LINE
  5
21D
100
AcDbEntity
  8
A_RUNDUNGEN
100
AcDbLine
 62
7
  6
CONTINUOUS
 10
21.2624777669
 20
51.5528930999
 11
21.2624778867
 21
27.8528930999
  0
LINE
  5
21E
100
AcDbEntity
  8
0
100
AcDbLine
 62
7
  6
CONTINUOUS
 10
23.2624777593
 20
53.05289311
 11
23.2624777654
 21
51.85289311
  0
LINE
  5
21F
100
AcDbEntity
  8
A_RUNDUNGEN
100
AcDbLine
 62
7
  6
CONTINUOUS
 10
20.9695846487
 20
31.6457863172
 11
20.7411575228
 21
31.8742134408
  0
LINE
  5
220
100
AcDbEntity
  8
0
100
AcDbLine
 62
7
  6
CONTINUOUS
 10
26.6944777593
 20
53.0528931273
 11
26.6944777492
 21
55.0528931273
  0
LINE
  5
221
100
AcDbEntity
  8
0
100
AcDbLine
 62
7
  6
CONTINUOUS
 10
29.0771506874
 20
53.2377378849
 11
29.077150677
 21
55.2922007073
  0
LINE
  5
222
100
AcDbEntity
  8
A_RUNDUNGEN
100
AcDbLine
 62
7
  6
CONTINUOUS
 10
20.0760451752
 20
36.8020392269
 11
21.2624778463
 21
35.8528930999
  0
LINE
  5
223
100
AcDbEntity
  8
0
100
AcDbLine
 62
7
  6
CONTINUOUS
 10
30.8778623599
 20
55.9759700716
 11
31.6470931385
 21
54.1298162293
  0
LINE
  5
224
100
AcDbEntity
  8
0
100
AcDbLine
 62
7
  6
CONTINUOUS
 10
39.5124778766
 20
29.8528931921
 11
39.5124777401
 21
56.8528931921
  0
LINE
  5
225
100
AcDbEntity
  8
0
100
AcDbLine
 62
7
  6
CONTINUOUS
 10
41.5124778796
 20
29.2528932022
 11
41.5124776268
 21
79.2528932022
  0
LINE
  5
226
100
AcDbEntity
  8
0
100
AcDbLine
 62
7
  6
CONTINUOUS
 10
43.1124778796
 20
29.2528932103
 11
43.1124776268
 21
79.2528932103
  0
LINE
  5
227
100
AcDbEntity
  8
0
100
AcDbLine
 62
7
  6
CONTINUOUS
 10
43.2124775156
 20
101.2528932108
 11
43.2124775237
 21
99.6528932108
  0
LINE
  5
228
100
AcDbEntity
  8
0
100
AcDbLine
 62
7
  6
CONTINUOUS
 10
46.112477685
 20
67.7528932255
 11
46.112477733
 21
58.2528932255
  0
LINE
  5
229
100
AcDbEntity
  8
A_ACHSEN
100
AcDbLine
 62
7
  6
CONTINUOUS
 10
52.31554329
 20
61.6508601574
 11
52.2384012493
 21
60.9479738895
  0
LINE
  5
22A
100
AcDbEntity
  8
0
100
AcDbLine
 62
7
  6
CONTINUOUS
 10
53.8916865438
 20
78.9376712207
 11
53.2332687382
 21
73.9681153056
  0
LINE
  5
22B
100
AcDbEntity
  8
0
100
AcDbLine
 62
7
  6
CONTINUOUS
 10
54.8194080161
 20
73.7579672842
 11
55.4778258217
 21
78.7275231993
  0
LINE
  5
22C
100
AcDbEntity
  8
A_RUNDUNGEN
100
AcDbLine
 62
7
  6
CONTINUOUS
 10
20.7411574421
 20
47.8315727537
 11
20.9695845657
 21
48.0599998796
  0
LINE
  5
22D
100
AcDbEntity
  8
0
100
AcDbLine
 62
7
  6
CONTINUOUS
 10
56.4124775282
 20
98.7528932776
 11
56.4124776551
 21
73.6528932776
  0
LINE
  5
22E
100
AcDbEntity
  8
0
100
AcDbLine
 62
7
  6
CONTINUOUS
 10
58.0124776551
 20
73.6528932857
 11
58.0124775282
 21
98.7528932857
  0
LINE
  5
22F
100
AcDbEntity
  8
0
100
AcDbLine
 62
7
  6
CONTINUOUS
 10
66.9216523405
 20
50.1693036349
 11
66.8966039041
 21
50.9953648525
  0
LINE
  5
230
100
AcDbEntity
  8
0
100
AcDbLine
 62
7
  6
CONTINUOUS
 10
62.8305024197
 20
49.5666143814
 11
63.5053572727
 21
51.8027412582
  0
LINE
  5
231
100
AcDbEntity
  8
0
100
AcDbLine
 62
7
  6
CONTINUOUS
 10
54.1051208828
 20
63.5902000773
 11
51.4378080927
 21
60.7560684392
  0
LINE
  5
232
100
AcDbEntity
  8
0
100
AcDbLine
 62
7
  6
CONTINUOUS
 10
44.1124777431
 20
56.2528932154
 11
46.112477733
 21
58.2528932255
  0
LINE
  5
233
100
AcDbEntity
  8
0
100
AcDbLine
 62
7
  6
CONTINUOUS
 10
52.9348315911
 20
65.6731706874
 11
55.6649306712
 21
67.8632754824
  0
LINE
  5
234
100
AcDbEntity
  8
A_ACHSEN
100
AcDbLine
 62
7
  6
CONTINUOUS
 10
58.8951086589
 20
69.8135447377
 11
58.3178877105
 21
69.3504940096
  0
LINE
  5
235
100
AcDbEntity
  8
A_RUNDUNGEN
100
AcDbLine
 62
7
  6
CONTINUOUS
 10
21.2624778058
 20
43.8528930999
 11
20.0760451443
 21
42.9037469608
  0
LINE
  5
236
100
AcDbEntity
  8
0
100
AcDbLine
 62
7
  6
CONTINUOUS
 10
16.1124778948
 20
26.2528930738
 11
40.1124778948
 21
26.2528931952
  0
LINE
  5
237
100
AcDbEntity
  8
0
100
AcDbLine
 62
7
  6
CONTINUOUS
 10
83.8040191424
 20
26.6773623052
 11
86.2812078419
 21
26.6773623052
  0
LINE
  5
238
100
AcDbEntity
  8
0
100
AcDbLine
 62
7
  6
CONTINUOUS
 10
90.5897308357
 20
26.6773623052
 11
183.8040191424
 21
26.6773623052
  0
LINE
  5
239
100
AcDbEntity
  8
0
100
AcDbLine
 62
7
  6
CONTINUOUS
 10
40.1124778867
 20
27.8528931952
 11
37.5124778867
 21
27.852893182
  0
LINE
  5
23A
100
AcDbEntity
  8
0
100
AcDbLine
 62
7
  6
CONTINUOUS
 10
21.2624778867
 20
27.8528930999
 11
16.1124778867
 21
27.8528930738
  0
LINE
  5
23B
100
AcDbEntity
  8
A_RUNDUNGEN
100
AcDbLine
 62
7
  6
CONTINUOUS
 10
21.2624778867
 20
27.8528930999
 11
37.5124778867
 21
27.852893182
  0
LINE
  5
23C
100
AcDbEntity
  8
0
100
AcDbLine
 62
7
  6
CONTINUOUS
 10
62.0486244967
 20
45.6790792286
 11
62.0551638964
 21
45.6731934756
  0
LINE
  5
23D
100
AcDbEntity
  8
0
100
AcDbLine
 62
7
  6
CONTINUOUS
 10
51.4474522956
 20
60.4380165734
 11
51.7907376878
 21
60.1149371846
  0
LINE
  5
23E
100
AcDbEntity
  8
A_ACHSEN
100
AcDbLine
 62
7
  6
CONTINUOUS
 10
55.367122385
 20
57.0478323466
 11
52.2384012493
 21
60.9479738895
  0
LINE
  5
23F
100
AcDbEntity
  8
A_ACHSEN
100
AcDbLine
 62
7
  6
CONTINUOUS
 10
56.0700086529
 20
56.9706903059
 11
52.31554329
 21
61.6508601574
  0
LINE
  5
240
100
AcDbEntity
  8
0
100
AcDbLine
 62
7
  6
CONTINUOUS
 10
63.3280339091
 20
52.7174106929
 11
58.4100935787
 21
58.8479229873
  0
LINE
  5
241
100
AcDbEntity
  8
0
100
AcDbLine
 62
7
  6
CONTINUOUS
 10
54.6556282158
 20
63.5280928388
 11
52.9348315911
 21
65.6731706874
  0
LINE
  5
242
100
AcDbEntity
  8
0
100
AcDbLine
 62
7
  6
CONTINUOUS
 10
72.7071071965
 20
36.6819564789
 11
72.8113553988
 21
36.5134067083
  0
LINE
  5
243
100
AcDbEntity
  8
0
100
AcDbLine
 62
7
  6
CONTINUOUS
 10
72.041270236
 20
36.274342299
 11
72.458533164
 21
22.513614203
  0
LINE
  5
244
100
AcDbEntity
  8
0
100
AcDbLine
 62
7
  6
CONTINUOUS
 10
73.8136810241
 20
22.554705994
 11
73.396418096
 21
36.31543409
  0
LINE
  5
245
100
AcDbEntity
  8
A_ACHSEN
100
AcDbLine
 62
7
  6
CENTER
 10
72.4040191424
 20
46.6773623052
 11
72.4040191424
 21
16.6773623052
  0
LINE
  5
246
100
AcDbEntity
  8
A_ACHSEN
100
AcDbLine
 62
7
  6
CENTER
 10
72.4040191424
 20
46.6773623052
 11
72.4040191424
 21
76.6773623052
  0
LINE
  5
247
100
AcDbEntity
  8
0
100
AcDbLine
 62
7
  6
CONTINUOUS
 10
65.5505155203
 20
39.3952274464
 11
65.5050474453
 21
39.2023301498
  0
LINE
  5
248
100
AcDbEntity
  8
0
100
AcDbLine
 62
7
  6
CONTINUOUS
 10
66.1812332726
 20
48.5553761547
 11
66.8560881257
 21
50.7915030315
  0
LINE
  5
249
100
AcDbEntity
  8
0
100
AcDbLine
 62
7
  6
CONTINUOUS
 10
64.4396137934
 20
71.8710069422
 11
61.9811294707
 21
69.84173306
  0
LINE
  5
24A
100
AcDbEntity
  8
A_ACHSEN
100
AcDbLine
 62
7
  6
CONTINUOUS
 10
59.5308051445
 20
67.4389942585
 11
52.31554329
 21
61.6508601574
  0
LINE
  5
24B
100
AcDbEntity
  8
0
100
AcDbLine
 62
7
  6
CONTINUOUS
 10
54.6556282158
 20
63.5280928388
 11
59.5308051445
 21
67.4389942585
  0
LINE
  5
24C
100
AcDbEntity
  8
0
100
AcDbLine
 62
2
  6
CONTINUOUS
 10
52.3635500947
 20
60.7919682278
 11
58.9937907177
 21
66.1107941585
  0
LINE
  5
24D
100
AcDbEntity
  8
A_ACHSEN
100
AcDbLine
 62
7
  6
CENTER
 10
52.2427052
 20
57.7464146638
 11
65.9452186784
 21
68.738667909
  0
LINE
  5
24E
100
AcDbEntity
  8
0
100
AcDbLine
 62
2
  6
CONTINUOUS
 10
55.2419735396
 20
57.2038380083
 11
61.8722141626
 21
62.522663939
  0
LINE
  5
24F
100
AcDbEntity
  8
0
100
AcDbLine
 62
7
  6
CONTINUOUS
 10
83.8040191424
 20
30.1773623052
 11
88.9272283222
 21
30.1773623052
  0
LINE
  5
250
100
AcDbEntity
  8
0
100
AcDbLine
 62
7
  6
CONTINUOUS
 10
93.8560966382
 20
30.1773623052
 11
102.3040191424
 21
30.1773623052
  0
LINE
  5
251
100
AcDbEntity
  8
0
100
AcDbLine
 62
7
  6
CONTINUOUS
 10
79.6861540012
 20
39.8238586831
 11
79.8790512978
 21
39.7783906081
  0
LINE
  5
252
100
AcDbEntity
  8
0
100
AcDbLine
 62
7
  6
CONTINUOUS
 10
62.2340568393
 20
46.4681185331
 11
62.4086133161
 21
46.374274251
  0
LINE
  5
253
100
AcDbEntity
  8
0
100
AcDbLine
 62
7
  6
CONTINUOUS
 10
79.503562922
 20
39.0648141024
 11
89.5289165187
 21
29.6295593976
  0
LINE
  5
254
100
AcDbEntity
  8
0
100
AcDbLine
 62
7
  6
CONTINUOUS
 10
53.0530701136
 20
64.8893017749
 11
54.0954766799
 21
63.9082519432
  0
LINE
  5
255
100
AcDbEntity
  8
A_RUNDUNGEN
100
AcDbLine
 62
7
  6
CONTINUOUS
 10
54.0954766799
 20
63.9082519432
 11
54.5712952668
 21
63.4604403506
  0
LINE
  5
256
100
AcDbEntity
  8
0
100
AcDbLine
 62
7
  6
CONTINUOUS
 10
54.4231727486
 20
63.5998442801
 11
54.5712952668
 21
63.4604403506
  0
LINE
  5
257
100
AcDbEntity
  8
0
100
AcDbLine
 62
7
  6
CONTINUOUS
 10
90.458094476
 20
30.6168499231
 11
80.4327408792
 21
40.0521046279
  0
LINE
  5
258
100
AcDbEntity
  8
0
100
AcDbLine
 62
7
  6
CONTINUOUS
 10
66.0581329891
 20
54.9075154879
 11
61.1401926587
 21
61.0380277823
  0
LINE
  5
259
100
AcDbEntity
  8
0
100
AcDbLine
 62
7
  6
CONTINUOUS
 10
57.3857272958
 20
65.7181976338
 11
55.5024918393
 21
68.0657653846
  0
LINE
  5
25A
100
AcDbEntity
  8
0
100
AcDbLine
 62
7
  6
CONTINUOUS
 10
58.5557697587
 20
66.6568139745
 11
62.3102351216
 21
61.976644123
  0
LINE
  5
25B
100
AcDbEntity
  8
0
100
AcDbLine
 62
7
  6
CONTINUOUS
 10
66.4525626634
 20
59.210125998
 11
64.8882020955
 21
61.1601967694
  0
LINE
  5
25C
100
AcDbEntity
  8
A_ACHSEN
100
AcDbLine
 62
7
  6
CONTINUOUS
 10
64.8882020955
 20
61.1601967694
 11
58.3178877105
 21
69.3504940096
  0
LINE
  5
25D
100
AcDbEntity
  8
0
100
AcDbLine
 62
7
  6
CONTINUOUS
 10
58.3178877105
 20
69.3504940096
 11
57.842576765
 21
69.942998066
  0
LINE
  5
25E
100
AcDbEntity
  8
A_ACHSEN
100
AcDbLine
 62
7
  6
CONTINUOUS
 10
65.4654230439
 20
61.6232474975
 11
58.8951086589
 21
69.8135447377
  0
LINE
  5
25F
100
AcDbEntity
  8
0
100
AcDbLine
 62
7
  6
CONTINUOUS
 10
66.3834018464
 20
54.6618577417
 11
68.4906179
 21
51.8672843389
  0
LINE
  5
260
100
AcDbEntity
  8
0
100
AcDbLine
 62
7
  6
CONTINUOUS
 10
80.4322816512
 20
40.0608852624
 11
80.4318194531
 21
40.0696711721
  0
LINE
  5
261
100
AcDbEntity
  8
0
100
AcDbLine
 62
7
  6
CONTINUOUS
 10
39.5124778766
 20
29.8528931921
 11
37.5124778867
 21
27.852893182
  0
LINE
  5
262
100
AcDbEntity
  8
0
100
AcDbLine
 62
7
  6
CONTINUOUS
 10
76.6799539103
 20
73.272856983
 11
73.9308642121
 21
71.0517018348
  0
LINE
  5
263
100
AcDbEntity
  8
A_ACHSEN
100
AcDbLine
 62
7
  6
CONTINUOUS
 10
63.2852705073
 20
62.758824407
 11
56.0700086529
 21
56.9706903059
  0
LINE
  5
264
100
AcDbEntity
  8
0
100
AcDbLine
 62
7
  6
CONTINUOUS
 10
58.4100935787
 20
58.8479229873
 11
61.1401926587
 21
61.0380277823
  0
LINE
  5
265
100
AcDbEntity
  8
A_ACHSEN
100
AcDbLine
 62
7
  6
CONTINUOUS
 10
65.4654230439
 20
61.6232474975
 11
64.8882020955
 21
61.1601967694
  0
LINE
  5
266
100
AcDbEntity
  8
0
100
AcDbLine
 62
7
  6
CONTINUOUS
 10
65.2010742091
 20
60.7701826151
 11
62.8609892834
 21
58.8929499337
  0
LINE
  5
267
100
AcDbEntity
  8
0
100
AcDbLine
 62
7
  6
CONTINUOUS
 10
66.4525626634
 20
59.210125998
 11
64.1124777376
 21
57.3328933165
  0
LINE
  5
268
100
AcDbEntity
  8
0
100
AcDbLine
 62
7
  6
CONTINUOUS
 10
29.9547854388
 20
55.5913546823
 11
30.8778623599
 21
55.9759700716
  0
LINE
  5
269
100
AcDbEntity
  8
0
100
AcDbLine
 62
7
  6
CONTINUOUS
 10
30.7240162173
 20
53.74520084
 11
31.6470931385
 21
54.1298162293
  0
LINE
  5
26A
100
AcDbEntity
  8
0
100
AcDbLine
 62
7
  6
CONTINUOUS
 10
65.7875420996
 20
38.6490997964
 11
65.7963280093
 21
38.6495619944
  0
LINE
  5
26B
100
AcDbEntity
  8
0
100
AcDbLine
 62
7
  6
CONTINUOUS
 10
14.712477819
 20
41.2528930667
 11
13.112477819
 21
41.2528930586
  0
LINE
  5
26C
100
AcDbEntity
  8
0
100
AcDbLine
 62
7
  6
CONTINUOUS
 10
82.5739814454
 20
46.8866060773
 11
82.3994249686
 21
46.9804503593
  0
LINE
  5
26D
100
AcDbEntity
  8
0
100
AcDbLine
 62
7
  6
CONTINUOUS
 10
82.759413788
 20
47.6756453818
 11
82.7528743883
 21
47.6815311347
  0
LINE
  5
26E
100
AcDbEntity
  8
A_RUNDUNGEN
100
AcDbLine
 62
7
  6
CONTINUOUS
 10
58.265088888
 20
69.777430079
 11
58.2549066695
 21
69.7869217981
  0
LINE
  5
26F
100
AcDbEntity
  8
A_RUNDUNGEN
100
AcDbLine
 62
7
  6
CONTINUOUS
 10
62.9572683899
 20
68.6811338365
 11
63.7445788761
 21
67.6997033409
  0
LINE
  5
270
100
AcDbEntity
  8
A_ACHSEN
100
AcDbLine
 62
7
  6
CONTINUOUS
 10
65.9763353605
 20
64.917682892
 11
62.2219356205
 21
69.5977709407
  0
LINE
  5
271
100
AcDbEntity
  8
0
100
AcDbLine
 62
7
  6
CONTINUOUS
 10
64.4160395641
 20
72.3379546557
 11
64.5001443809
 21
72.1827699996
  0
LINE
  5
272
100
AcDbEntity
  8
0
100
AcDbLine
 62
7
  6
CONTINUOUS
 10
79.7432261414
 20
39.6340706865
 11
79.6861540012
 21
39.8238586831
  0
LINE
  5
273
100
AcDbEntity
  8
0
100
AcDbLine
 62
7
  6
CONTINUOUS
 10
83.8040191424
 20
66.6773623052
 11
83.8040191424
 21
63.1773623052
  0
LINE
  5
274
100
AcDbEntity
  8
0
100
AcDbLine
 62
7
  6
CONTINUOUS
 10
83.8040191424
 20
30.1773623052
 11
83.8040191424
 21
26.6773623052
  0
LINE
  5
275
100
AcDbEntity
  8
0
100
AcDbLine
 62
7
  6
CONTINUOUS
 10
79.2575227645
 20
53.959497164
 11
79.3029908395
 21
54.1523944606
  0
LINE
  5
276
100
AcDbEntity
  8
0
100
AcDbLine
 62
7
  6
CONTINUOUS
 10
48.2813628312
 20
45.2677004235
 11
62.0420909272
 21
45.6849633515
  0
LINE
  5
277
100
AcDbEntity
  8
0
100
AcDbLine
 62
7
  6
CONTINUOUS
 10
82.8070391486
 20
46.3146133988
 11
96.5677672446
 21
46.7318763268
  0
LINE
  5
278
100
AcDbEntity
  8
0
100
AcDbLine
 62
7
  6
CONTINUOUS
 10
96.5266754535
 20
48.0870241869
 11
82.7659473575
 21
47.6697612588
  0
LINE
  5
279
100
AcDbEntity
  8
0
100
AcDbLine
 62
7
  6
CONTINUOUS
 10
62.0009991362
 20
47.0401112116
 11
48.2402710402
 21
46.6228482835
  0
LINE
  5
27A
100
AcDbEntity
  8
A_ACHSEN
100
AcDbLine
 62
7
  6
CENTER
 10
72.4040191424
 20
46.6773623052
 11
42.4040191424
 21
46.6773623052
  0
LINE
  5
27B
100
AcDbEntity
  8
A_ACHSEN
100
AcDbLine
 62
7
  6
CENTER
 10
72.4040191424
 20
46.6773623052
 11
102.4040191424
 21
46.6773623052
  0
LINE
  5
27C
100
AcDbEntity
  8
0
100
AcDbLine
 62
7
  6
CONTINUOUS
 10
72.6132629145
 20
36.5074000021
 11
72.7071071965
 21
36.6819564789
  0
LINE
  5
27D
100
AcDbEntity
  8
0
100
AcDbLine
 62
7
  6
CONTINUOUS
 10
66.7313758253
 20
43.714067214
 11
67.7460413283
 21
44.7921918399
  0
LINE
  5
27E
100
AcDbEntity
  8
0
100
AcDbLine
 62
7
  6
CONTINUOUS
 10
74.0035003158
 20
51.4410042917
 11
75.0181658187
 21
52.5191289177
  0
LINE
  5
27F
100
AcDbEntity
  8
0
100
AcDbLine
 62
7
  6
CONTINUOUS
 10
88.4645315245
 20
64.7314376388
 11
79.0292768197
 21
54.7060840421
  0
LINE
  5
280
100
AcDbEntity
  8
0
100
AcDbLine
 62
7
  6
CONTINUOUS
 10
64.7914709396
 20
39.5778185256
 11
55.3562162348
 21
29.5524649288
  0
LINE
  5
281
100
AcDbEntity
  8
0
100
AcDbLine
 62
7
  6
CONTINUOUS
 10
56.3435067603
 20
28.6232869716
 11
65.7787614651
 21
38.6486405683
  0
LINE
  5
282
100
AcDbEntity
  8
0
100
AcDbLine
 62
7
  6
CONTINUOUS
 10
80.0165673452
 20
53.7769060848
 11
89.45182205
 21
63.8022596815
  0
LINE
  5
283
100
AcDbEntity
  8
0
100
AcDbLine
 62
7
  6
CONTINUOUS
 10
62.4086133161
 20
46.374274251
 11
62.2400635455
 21
46.2700260488
  0
LINE
  5
284
100
AcDbEntity
  8
0
100
AcDbLine
 62
7
  6
CONTINUOUS
 10
68.4405672008
 20
51.9336611836
 11
67.0264280813
 21
51.8907806161
  0
LINE
  5
285
100
AcDbEntity
  8
A_RUNDUNGEN
100
AcDbLine
 62
7
  6
CONTINUOUS
 10
21.2753586105
 20
51.8528930999
 11
39.5124777654
 21
51.8528931921
  0
LINE
  5
286
100
AcDbEntity
  8
0
100
AcDbLine
 62
7
  6
CONTINUOUS
 10
23.2624777593
 20
53.05289311
 11
27.2624777593
 21
53.0528931302
  0
LINE
  5
287
100
AcDbEntity
  8
A_ACHSEN
100
AcDbLine
 62
7
  6
CONTINUOUS
 10
56.0700086529
 20
56.9706903059
 11
55.367122385
 21
57.0478323466
  0
LINE
  5
288
100
AcDbEntity
  8
0
100
AcDbLine
 62
7
  6
CONTINUOUS
 10
94.8040191424
 20
26.6773623052
 11
94.8040191424
 21
30.1773623052
  0
LINE
  5
289
100
AcDbEntity
  8
0
100
AcDbLine
 62
7
  6
CONTINUOUS
 10
94.8040191424
 20
63.1773623052
 11
94.8040191424
 21
66.6773623052
  0
LINE
  5
28A
100
AcDbEntity
  8
0
100
AcDbLine
 62
7
  6
CONTINUOUS
 10
73.402302219
 20
36.3219676595
 11
73.4081879719
 21
36.3285070592
  0
LINE
  5
28B
100
AcDbEntity
  8
0
100
AcDbLine
 62
7
  6
CONTINUOUS
 10
79.4473107611
 20
54.0165693042
 11
79.2575227645
 21
53.959497164
  0
LINE
  5
28C
100
AcDbEntity
  8
0
100
AcDbLine
 62
7
  6
CONTINUOUS
 10
79.0204961852
 20
54.705624814
 11
79.0117102755
 21
54.705162616
  0
LINE
  5
28D
100
AcDbEntity
  8
A_RUNDUNGEN
100
AcDbLine
 62
7
  6
CONTINUOUS
 10
24.7624777492
 20
55.0528931176
 11
26.6944777492
 21
55.0528931273
  0
LINE
  5
28E
100
AcDbEntity
  8
0
100
AcDbLine
 62
7
  6
CONTINUOUS
 10
26.6944777492
 20
55.0528931273
 11
27.2624777492
 21
55.0528931302
  0
LINE
  5
28F
100
AcDbEntity
  8
0
100
AcDbLine
 62
7
  6
CONTINUOUS
 10
44.1124777431
 20
56.2528932154
 11
43.1124777431
 21
56.2528932103
  0
LINE
  5
290
100
AcDbEntity
  8
0
100
AcDbLine
 62
7
  6
CONTINUOUS
 10
39.5124777401
 20
56.8528931921
 11
41.5124777401
 21
56.8528932022
  0
LINE
  5
291
100
AcDbEntity
  8
0
100
AcDbLine
 62
7
  6
CONTINUOUS
 10
102.3040191424
 20
63.1773623052
 11
102.3040191424
 21
30.1773623052
  0
LINE
  5
292
100
AcDbEntity
  8
0
100
AcDbLine
 62
7
  6
CONTINUOUS
 10
82.3994249686
 20
46.9804503593
 11
82.5679747393
 21
47.0846985616
  0
LINE
  5
293
100
AcDbEntity
  8
0
100
AcDbLine
 62
7
  6
CONTINUOUS
 10
83.8040191424
 20
63.1773623052
 11
86.9834605581
 21
63.1773623052
  0
LINE
  5
294
100
AcDbEntity
  8
0
100
AcDbLine
 62
7
  6
CONTINUOUS
 10
88.8821760701
 20
63.1773623052
 11
90.3013001866
 21
63.1773623052
  0
LINE
  5
295
100
AcDbEntity
  8
0
100
AcDbLine
 62
7
  6
CONTINUOUS
 10
93.8756999598
 20
63.1773623052
 11
102.3040191424
 21
63.1773623052
  0
LINE
  5
296
100
AcDbEntity
  8
0
100
AcDbLine
 62
7
  6
CONTINUOUS
 10
83.8040191424
 20
66.6773623052
 11
86.3262250415
 21
66.6773623052
  0
LINE
  5
297
100
AcDbEntity
  8
0
100
AcDbLine
 62
7
  6
CONTINUOUS
 10
90.6327594481
 20
66.6773623052
 11
183.8040191424
 21
66.6773623052
  0
LINE
  5
298
100
AcDbEntity
  8
0
100
AcDbLine
 62
7
  6
CONTINUOUS
 10
86.3133105024
 20
66.6873623052
 11
83.8040191424
 21
66.6873623052
  0
LINE
  5
299
100
AcDbEntity
  8
0
100
AcDbLine
 62
7
  6
CONTINUOUS
 10
65.3607275237
 20
39.3381553061
 11
65.5505155203
 21
39.3952274464
  0
LINE
  5
29A
100
AcDbEntity
  8
0
100
AcDbLine
 62
7
  6
CONTINUOUS
 10
55.1124776824
 20
68.252893271
 11
46.6124776824
 21
68.252893228
  0
LINE
  5
29B
100
AcDbEntity
  8
0
100
AcDbLine
 62
7
  6
CONTINUOUS
 10
55.1124776673
 20
71.252893271
 11
46.6124776673
 21
71.252893228
  0
LINE
  5
29C
100
AcDbEntity
  8
0
100
AcDbLine
 62
7
  6
CONTINUOUS
 10
45.5124776147
 20
81.6528932225
 11
51.5124776147
 21
81.6528932528
  0
LINE
  5
29D
100
AcDbEntity
  8
0
100
AcDbLine
 62
7
  6
CONTINUOUS
 10
51.5124776066
 20
83.2528932528
 11
45.5124776066
 21
83.2528932225
  0
LINE
  5
29E
100
AcDbEntity
  8
0
100
AcDbLine
 62
7
  6
CONTINUOUS
 10
43.2124775237
 20
99.6528932108
 11
55.5124775237
 21
99.652893273
  0
LINE
  5
29F
100
AcDbEntity
  8
0
100
AcDbLine
 62
7
  6
CONTINUOUS
 10
55.5124775156
 20
101.252893273
 11
43.2124775156
 21
101.2528932108
  0
LINE
  5
2A0
100
AcDbEntity
  8
0
100
AcDbLine
 62
7
  6
CONTINUOUS
 10
183.8040191424
 20
26.6773623052
 11
183.8040191424
 21
66.6773623052
  0
ARC
  5
2A1
100
AcDbEntity
  8
A_RUNDUNGEN
100
AcDbCircle
 62
7
  6
CONTINUOUS
 10
22.2624778244
 20
40.1707061387
 40
3.5
100
AcDbArc
 50
128.6598085386
 51
180.0000003042
  0
ARC
  5
2A2
100
AcDbEntity
  8
A_RUNDUNGEN
100
AcDbCircle
 62
7
  6
CONTINUOUS
 10
22.2624778276
 20
39.5350800711
 40
3.5
100
AcDbArc
 50
180.0000002677
 51
231.3401920398
  0
ARC
  5
2A3
100
AcDbEntity
  8
A_RUNDUNGEN
100
AcDbCircle
 62
7
  6
CONTINUOUS
 10
22.8624778556
 20
33.9955337951
 40
3.0
100
AcDbArc
 50
180.0000002897
 51
225.0000002897
  0
ARC
  5
2A4
100
AcDbEntity
  8
0
100
AcDbCircle
 62
7
  6
CONTINUOUS
 10
16.1124778796
 20
29.2528930738
 40
3.0
100
AcDbArc
 50
180.0000002897
 51
270.0000002897
  0
ARC
  5
2A5
100
AcDbEntity
  8
0
100
AcDbCircle
 62
7
  6
CONTINUOUS
 10
16.1124778796
 20
29.2528930738
 40
1.4
100
AcDbArc
 50
180.0000002897
 51
270.0000002897
  0
ARC
  5
2A6
100
AcDbEntity
  8
A_RUNDUNGEN
100
AcDbCircle
 62
7
  6
CONTINUOUS
 10
20.2624778711
 20
30.9386795324
 40
1.0
100
AcDbArc
 50
0.0000002897
 51
45.0000002897
  0
ARC
  5
2A7
100
AcDbEntity
  8
A_RUNDUNGEN
100
AcDbCircle
 62
7
  6
CONTINUOUS
 10
24.7624777669
 20
51.5528931176
 40
3.5
100
AcDbArc
 50
90.0000002897
 51
180.0000002897
  0
ARC
  5
2A8
100
AcDbEntity
  8
A_RUNDUNGEN
100
AcDbCircle
 62
7
  6
CONTINUOUS
 10
22.8624777964
 20
45.7102524208
 40
3.0
100
AcDbArc
 50
135.0000002897
 51
180.0000002897
  0
ARC
  5
2A9
100
AcDbEntity
  8
A_RUNDUNGEN
100
AcDbCircle
 62
7
  6
CONTINUOUS
 10
20.262477781
 20
48.7671066572
 40
1.0
100
AcDbArc
 50
314.9999880885
 51
0.0000002897
  0
ARC
  5
2AA
100
AcDbEntity
  8
0
100
AcDbCircle
 62
7
  6
CONTINUOUS
 10
40.1124778796
 20
29.2528931952
 40
3.0
100
AcDbArc
 50
270.0000002897
 51
0.0000002897
  0
ARC
  5
2AB
100
AcDbEntity
  8
0
100
AcDbCircle
 62
7
  6
CONTINUOUS
 10
40.1124778796
 20
29.2528931952
 40
1.4
100
AcDbArc
 50
270.0000002897
 51
0.0000002897
  0
ARC
  5
2AC
100
AcDbEntity
  8
0
100
AcDbCircle
 62
7
  6
CONTINUOUS
 10
55.1741630207
 20
29.7238022442
 40
0.2499996968
100
AcDbArc
 50
224.5368811124
 51
316.7368538189
  0
ARC
  5
2AD
100
AcDbEntity
  8
0
100
AcDbCircle
 62
7
  6
CONTINUOUS
 10
48.2326937555
 20
46.8727331233
 40
0.2499996968
100
AcDbArc
 50
179.5368811124
 51
271.7368538189
  0
ARC
  5
2AE
100
AcDbEntity
  8
0
100
AcDbCircle
 62
7
  6
CONTINUOUS
 10
48.2889399311
 20
45.0178155779
 40
0.249999697
100
AcDbArc
 50
91.7368114603
 51
183.9367840784
  0
ARC
  5
2AF
100
AcDbEntity
  8
0
100
AcDbCircle
 62
7
  6
CONTINUOUS
 10
51.6365337999
 20
59.9510889911
 40
0.2250001546
100
AcDbArc
 50
327.4149741532
 51
46.7368499378
  0
ARC
  5
2B0
100
AcDbEntity
  8
0
100
AcDbCircle
 62
7
  6
CONTINUOUS
 10
51.6016561271
 20
60.6018646077
 40
0.225
100
AcDbArc
 50
136.7368326175
 51
226.7368326175
  0
ARC
  5
2B1
100
AcDbEntity
  8
0
100
AcDbCircle
 62
7
  6
CONTINUOUS
 10
27.2624777138
 20
62.0528931302
 40
9.0
100
AcDbArc
 50
270.0000002897
 51
292.6198652377
  0
ARC
  5
2B2
100
AcDbEntity
  8
0
100
AcDbCircle
 62
7
  6
CONTINUOUS
 10
27.2624777138
 20
62.0528931302
 40
7.0
100
AcDbArc
 50
270.0000002897
 51
292.6198652377
  0
ARC
  5
2B3
100
AcDbEntity
  8
0
100
AcDbCircle
 62
7
  6
CONTINUOUS
 10
45.5124776268
 20
79.2528932225
 40
4.0
100
AcDbArc
 50
90.0000002897
 51
180.0000002897
  0
ARC
  5
2B4
100
AcDbEntity
  8
0
100
AcDbCircle
 62
7
  6
CONTINUOUS
 10
51.5124776268
 20
79.2528932528
 40
4.0
100
AcDbArc
 50
352.4528220893
 51
90.0000002897
  0
ARC
  5
2B5
100
AcDbEntity
  8
0
100
AcDbCircle
 62
7
  6
CONTINUOUS
 10
46.612477685
 20
67.752893228
 40
3.5
100
AcDbArc
 50
90.0000002897
 51
180.0000002897
  0
ARC
  5
2B6
100
AcDbEntity
  8
0
100
AcDbCircle
 62
7
  6
CONTINUOUS
 10
55.112477685
 20
67.752893271
 40
3.5
100
AcDbArc
 50
38.7368326175
 51
90.0000002897
  0
ARC
  5
2B7
100
AcDbEntity
  8
0
100
AcDbCircle
 62
7
  6
CONTINUOUS
 10
55.5124775282
 20
98.752893273
 40
2.5
100
AcDbArc
 50
0.0000002897
 51
90.0000002897
  0
ARC
  5
2B8
100
AcDbEntity
  8
0
100
AcDbCircle
 62
7
  6
CONTINUOUS
 10
55.6124776551
 20
73.6528932735
 40
2.4
100
AcDbArc
 50
172.4528220893
 51
0.0000002897
  0
ARC
  5
2B9
100
AcDbEntity
  8
0
100
AcDbCircle
 62
7
  6
CONTINUOUS
 10
51.5124776268
 20
79.2528932528
 40
2.4
100
AcDbArc
 50
352.4528220893
 51
90.0000002897
  0
ARC
  5
2BA
100
AcDbEntity
  8
0
100
AcDbCircle
 62
7
  6
CONTINUOUS
 10
45.5124776268
 20
79.2528932225
 40
2.4
100
AcDbArc
 50
90.0000002897
 51
180.0000002897
  0
ARC
  5
2BB
100
AcDbEntity
  8
0
100
AcDbCircle
 62
7
  6
CONTINUOUS
 10
55.5124775282
 20
98.752893273
 40
0.9
100
AcDbArc
 50
0.0000002897
 51
90.0000002897
  0
ARC
  5
2BC
100
AcDbEntity
  8
0
100
AcDbCircle
 62
7
  6
CONTINUOUS
 10
55.6124776551
 20
73.6528932735
 40
0.8
100
AcDbArc
 50
172.4528220893
 51
0.0000002897
  0
ARC
  5
2BD
100
AcDbEntity
  8
A_RUNDUNGEN
100
AcDbCircle
 62
7
  6
CONTINUOUS
 10
54.4612327226
 20
66.3100863789
 40
0.5001869492
100
AcDbArc
 50
105.6207524758
 51
132.3936820939
  0
ARC
  5
2BE
100
AcDbEntity
  8
0
100
AcDbCircle
 62
7
  6
CONTINUOUS
 10
52.7103962545
 20
64.5251542085
 40
0.5000314364
100
AcDbArc
 50
46.7401488336
 51
137.81141442
  0
ARC
  5
2BF
100
AcDbEntity
  8
0
100
AcDbCircle
 62
7
  6
CONTINUOUS
 10
46.612477685
 20
67.752893228
 40
0.5
100
AcDbArc
 50
90.0000002897
 51
180.0000002897
  0
ARC
  5
2C0
100
AcDbEntity
  8
0
100
AcDbCircle
 62
7
  6
CONTINUOUS
 10
55.112477685
 20
67.752893271
 40
0.5
100
AcDbArc
 50
38.7368326175
 51
90.0000002897
  0
ARC
  5
2C1
100
AcDbEntity
  8
A_RUNDUNGEN
100
AcDbCircle
 62
7
  6
CONTINUOUS
 10
54.4663944497
 20
66.3056139887
 40
0.5
100
AcDbArc
 50
108.286810328
 51
132.4231804127
  0
ARC
  5
2C2
100
AcDbEntity
  8
0
100
AcDbCircle
 62
7
  6
CONTINUOUS
 10
53.9412728484
 20
63.7444039088
 40
0.225
100
AcDbArc
 50
316.7368326175
 51
46.7368326175
  0
ARC
  5
2C3
100
AcDbEntity
  8
0
100
AcDbCircle
 62
7
  6
CONTINUOUS
 10
56.5255598478
 20
28.4519495215
 40
0.249999697
100
AcDbArc
 50
136.7368114603
 51
228.9367840784
  0
ARC
  5
2C4
100
AcDbEntity
  8
0
100
AcDbCircle
 62
7
  6
CONTINUOUS
 10
72.2086483242
 20
22.5060369183
 40
0.2499996968
100
AcDbArc
 50
269.5368811124
 51
1.7368538189
  0
ARC
  5
2C5
100
AcDbEntity
  8
0
100
AcDbCircle
 62
7
  6
CONTINUOUS
 10
74.0635658697
 20
22.5622830939
 40
0.249999697
100
AcDbArc
 50
181.7368114603
 51
273.9367840784
  0
ARC
  5
2C6
100
AcDbEntity
  8
0
100
AcDbCircle
 62
7
  6
CONTINUOUS
 10
72.2661665908
 20
36.2811618565
 40
0.2249997262
100
AcDbArc
 50
89.2402872835
 51
181.7368541633
  0
ARC
  5
2C7
100
AcDbEntity
  8
0
100
AcDbCircle
 62
7
  6
CONTINUOUS
 10
73.171521736
 20
36.3086147017
 40
0.2249997262
100
AcDbArc
 50
1.7368110717
 51
94.2333779514
  0
ARC
  5
2C8
100
AcDbEntity
  8
0
100
AcDbCircle
 62
7
  6
CONTINUOUS
 10
62.0352715389
 20
45.9098597115
 40
0.2249997262
100
AcDbArc
 50
271.7368110716
 51
4.2333779515
  0
ARC
  5
2C9
100
AcDbEntity
  8
0
100
AcDbCircle
 62
7
  6
CONTINUOUS
 10
64.9553188325
 20
39.4236149433
 40
0.2249997262
100
AcDbArc
 50
44.2402872835
 51
136.7368541633
  0
ARC
  5
2CA
100
AcDbEntity
  8
0
100
AcDbCircle
 62
7
  6
CONTINUOUS
 10
65.6149136881
 20
38.8028442738
 40
0.2249997262
100
AcDbArc
 50
316.7368110716
 51
49.2333779515
  0
ARC
  5
2CB
100
AcDbEntity
  8
0
100
AcDbCircle
 62
7
  6
CONTINUOUS
 10
62.5480056005
 20
52.0916664658
 40
4.5
100
AcDbArc
 50
343.2063792869
 51
38.7368326175
  0
ARC
  5
2CC
100
AcDbEntity
  8
0
100
AcDbCircle
 62
7
  6
CONTINUOUS
 10
62.5480056005
 20
52.0916664658
 40
1.0
100
AcDbArc
 50
343.2063792869
 51
38.7368326175
  0
ARC
  5
2CD
100
AcDbEntity
  8
0
100
AcDbCircle
 62
7
  6
CONTINUOUS
 10
62.0078186937
 20
46.8152148567
 40
0.2249997262
100
AcDbArc
 50
359.2402872835
 51
91.7368541633
  0
ARC
  5
2CE
100
AcDbEntity
  8
A_RUNDUNGEN
100
AcDbCircle
 62
7
  6
CONTINUOUS
 10
75.2449104772
 20
44.7989454349
 40
27.8243721635
100
AcDbArc
 50
146.7695985771
 51
147.0380236507
  0
ARC
  5
2CF
100
AcDbEntity
  8
A_RUNDUNGEN
100
AcDbCircle
 62
7
  6
CONTINUOUS
 10
70.6759359556
 20
48.3255611613
 40
24.7007569317
100
AcDbArc
 50
136.5908393606
 51
137.5891207278
  0
ARC
  5
2D0
100
AcDbEntity
  8
A_ACHSEN
100
AcDbCircle
 62
7
  6
CONTINUOUS
 10
71.4027255993
 20
47.6197190532
 40
4.0
100
AcDbArc
 50
88.7337720684
 51
184.7398931666
  0
ARC
  5
2D1
100
AcDbEntity
  8
A_RUNDUNGEN
100
AcDbCircle
 62
7
  6
CONTINUOUS
 10
72.380167035
 20
46.6516144837
 40
27.0998808647
100
AcDbArc
 50
132.3503639796
 51
133.0289829999
  0
ARC
  5
2D2
100
AcDbEntity
  8
A_RUNDUNGEN
100
AcDbCircle
 62
7
  6
CONTINUOUS
 10
72.3945136984
 20
46.6625723622
 40
27.0912770599
100
AcDbArc
 50
121.0683167455
 51
121.4362037779
  0
ARC
  5
2D3
100
AcDbEntity
  8
A_RUNDUNGEN
100
AcDbCircle
 62
7
  6
CONTINUOUS
 10
72.4154894475
 20
46.688808747
 40
27.0892653436
100
AcDbArc
 50
132.4574215776
 51
133.4302241869
  0
ARC
  5
2D4
100
AcDbEntity
  8
A_RUNDUNGEN
100
AcDbCircle
 62
7
  6
CONTINUOUS
 10
72.4154720572
 20
46.6888635004
 40
27.0892140884
100
AcDbArc
 50
135.7686252781
 51
136.604401955
  0
ARC
  5
2D5
100
AcDbEntity
  8
A_RUNDUNGEN
100
AcDbCircle
 62
7
  6
CONTINUOUS
 10
72.4280908694
 20
46.7028547062
 40
27.087881126
100
AcDbArc
 50
120.9966733822
 51
121.5491445166
  0
ARC
  5
2D6
100
AcDbEntity
  8
A_RUNDUNGEN
100
AcDbCircle
 62
7
  6
CONTINUOUS
 10
72.3915412975
 20
46.6675002641
 40
27.0855221164
100
AcDbArc
 50
120.7020979238
 51
121.0683105561
  0
ARC
  5
2D7
100
AcDbEntity
  8
0
100
AcDbCircle
 62
7
  6
CONTINUOUS
 10
72.4040191424
 20
46.6773623052
 40
27.0778853624
100
AcDbArc
 50
107.8145060854
 51
118.4055552684
  0
ARC
  5
2D8
100
AcDbEntity
  8
0
100
AcDbCircle
 62
7
  6
CONTINUOUS
 10
72.4040191424
 20
46.6773623052
 40
27.0778853624
100
AcDbArc
 50
137.8147806556
 51
80.1970929574
  0
ARC
  5
2D9
100
AcDbEntity
  8
0
100
AcDbCircle
 62
7
  6
CONTINUOUS
 10
72.4035448018
 20
46.9285466827
 40
26.8316962938
100
AcDbArc
 50
80.7696538495
 51
91.7562059128
  0
ARC
  5
2DA
100
AcDbEntity
  8
A_RUNDUNGEN
100
AcDbCircle
 62
7
  6
CONTINUOUS
 10
72.4091108544
 20
46.6423662588
 40
24.4531311871
100
AcDbArc
 50
99.7244844139
 51
111.7860136846
  0
ARC
  5
2DB
100
AcDbEntity
  8
A_RUNDUNGEN
100
AcDbCircle
 62
7
  6
CONTINUOUS
 10
72.4033094898
 20
46.6598731645
 40
24.4276461258
100
AcDbArc
 50
144.8730633638
 51
146.7681898469
  0
ARC
  5
2DC
100
AcDbEntity
  8
0
100
AcDbCircle
 62
7
  6
CONTINUOUS
 10
72.4040191424
 20
46.6773623052
 40
24.4221146376
100
AcDbArc
 50
273.9367629212
 51
314.5369023138
  0
ARC
  5
2DD
100
AcDbEntity
  8
0
100
AcDbCircle
 62
7
  6
CONTINUOUS
 10
72.4040191424
 20
46.6773623052
 40
24.4221146376
100
AcDbArc
 50
228.9367629212
 51
269.5369023138
  0
ARC
  5
2DE
100
AcDbEntity
  8
0
100
AcDbCircle
 62
7
  6
CONTINUOUS
 10
72.4040191424
 20
46.6773623052
 40
24.4221146376
100
AcDbArc
 50
48.9367629212
 51
86.4155901703
  0
ARC
  5
2DF
100
AcDbEntity
  8
0
100
AcDbCircle
 62
7
  6
CONTINUOUS
 10
72.4040191424
 20
46.6773623052
 40
24.4221146376
100
AcDbArc
 50
183.9367629212
 51
224.5369023138
  0
ARC
  5
2E0
100
AcDbEntity
  8
0
100
AcDbCircle
 62
7
  6
CONTINUOUS
 10
72.4040191424
 20
46.6773623052
 40
24.4221146376
100
AcDbArc
 50
3.9367629212
 51
44.5369023138
  0
ARC
  5
2E1
100
AcDbEntity
  8
0
100
AcDbCircle
 62
7
  6
CONTINUOUS
 10
72.4040191424
 20
46.6773623052
 40
24.4221146376
100
AcDbArc
 50
318.9367629212
 51
359.5369023138
  0
ARC
  5
2E2
100
AcDbEntity
  8
0
100
AcDbCircle
 62
7
  6
CONTINUOUS
 10
72.4040191424
 20
46.6773623052
 40
24.4221146376
100
AcDbArc
 50
147.4149507769
 51
179.5369023138
  0
ARC
  5
2E3
100
AcDbEntity
  8
A_RUNDUNGEN
100
AcDbCircle
 62
7
  6
CONTINUOUS
 10
72.4143388654
 20
46.6883320276
 40
24.4120263378
100
AcDbArc
 50
111.8367360173
 51
112.9248817554
  0
ARC
  5
2E4
100
AcDbEntity
  8
A_RUNDUNGEN
100
AcDbCircle
 62
7
  6
CONTINUOUS
 10
72.4143234657
 20
46.6883601533
 40
24.4119944714
100
AcDbArc
 50
112.9641296217
 51
113.5738654897
  0
ARC
  5
2E5
100
AcDbEntity
  8
0
100
AcDbCircle
 62
7
  6
CONTINUOUS
 10
72.4040191424
 20
46.6773623052
 40
10.1721146376
100
AcDbArc
 50
317.294988912
 51
319.2333564056
  0
ARC
  5
2E6
100
AcDbEntity
  8
0
100
AcDbCircle
 62
7
  6
CONTINUOUS
 10
72.4040191424
 20
46.6773623052
 40
10.1721146376
100
AcDbArc
 50
314.2403088293
 51
316.1786763229
  0
ARC
  5
2E7
100
AcDbEntity
  8
0
100
AcDbCircle
 62
7
  6
CONTINUOUS
 10
72.4040191424
 20
46.6773623052
 40
10.1721146376
100
AcDbArc
 50
272.294988912
 51
274.2333564056
  0
ARC
  5
2E8
100
AcDbEntity
  8
0
100
AcDbCircle
 62
7
  6
CONTINUOUS
 10
72.4040191424
 20
46.6773623052
 40
10.1721146376
100
AcDbArc
 50
269.2403088293
 51
271.178676323
  0
ARC
  5
2E9
100
AcDbEntity
  8
0
100
AcDbCircle
 62
7
  6
CONTINUOUS
 10
72.4040191424
 20
46.6773623052
 40
10.1721146376
100
AcDbArc
 50
227.294988912
 51
229.2333564056
  0
ARC
  5
2EA
100
AcDbEntity
  8
0
100
AcDbCircle
 62
7
  6
CONTINUOUS
 10
72.4040191424
 20
46.6773623052
 40
10.1721146376
100
AcDbArc
 50
224.2403088293
 51
226.178676323
  0
ARC
  5
2EB
100
AcDbEntity
  8
0
100
AcDbCircle
 62
7
  6
CONTINUOUS
 10
72.4040191424
 20
46.6773623052
 40
10.1721146376
100
AcDbArc
 50
182.294988912
 51
184.2333564056
  0
ARC
  5
2EC
100
AcDbEntity
  8
0
100
AcDbCircle
 62
7
  6
CONTINUOUS
 10
72.4040191424
 20
46.6773623052
 40
10.1721146376
100
AcDbArc
 50
179.2403088293
 51
181.178676323
  0
ARC
  5
2ED
100
AcDbEntity
  8
0
100
AcDbCircle
 62
7
  6
CONTINUOUS
 10
72.4040191424
 20
46.6773623052
 40
10.1721146376
100
AcDbArc
 50
47.294988912
 51
49.2333564056
  0
ARC
  5
2EE
100
AcDbEntity
  8
0
100
AcDbCircle
 62
7
  6
CONTINUOUS
 10
72.4040191424
 20
46.6773623052
 40
10.1721146376
100
AcDbArc
 50
44.2403088293
 51
46.178676323
  0
ARC
  5
2EF
100
AcDbEntity
  8
0
100
AcDbCircle
 62
7
  6
CONTINUOUS
 10
72.4040191424
 20
46.6773623052
 40
10.1721146376
100
AcDbArc
 50
2.294988912
 51
4.2333564056
  0
ARC
  5
2F0
100
AcDbEntity
  8
0
100
AcDbCircle
 62
7
  6
CONTINUOUS
 10
72.4040191424
 20
46.6773623052
 40
10.1721146376
100
AcDbArc
 50
359.2403088293
 51
1.178676323
  0
ARC
  5
2F1
100
AcDbEntity
  8
0
100
AcDbCircle
 62
7
  6
CONTINUOUS
 10
72.4040191424
 20
46.6773623052
 40
10.0
100
AcDbArc
 50
163.2063792869
 51
127.0177012966
  0
ARC
  5
2F2
100
AcDbEntity
  8
0
100
AcDbCircle
 62
7
  6
CONTINUOUS
 10
72.4040191424
 20
46.6773623052
 40
7.2660254038
100
AcDbArc
 50
134.0387867797
 51
138.0203369142
  0
ARC
  5
2F3
100
AcDbEntity
  8
0
100
AcDbCircle
 62
7
  6
CONTINUOUS
 10
72.4040191424
 20
46.6773623052
 40
6.6
100
AcDbArc
 50
127.016036796
 51
127.2241368464
  0
ARC
  5
2F4
100
AcDbEntity
  8
0
100
AcDbCircle
 62
7
  6
CONTINUOUS
 10
72.4040191424
 20
46.6773623052
 40
6.6
100
AcDbArc
 50
146.2495283885
 51
153.3542719655
  0
CIRCLE
  5
2F5
100
AcDbEntity
  8
0
100
AcDbCircle
 62
7
  6
CONTINUOUS
 10
72.4040191424
 20
46.6773623052
 40
6.5
  0
ARC
  5
2F6
100
AcDbEntity
  8
A_ACHSEN
100
AcDbCircle
 62
7
  6
CONTINUOUS
 10
72.4040191424
 20
46.6773623052
 40
6.4
100
AcDbArc
 50
226.7368326175
 51
46.7368326175
  0
ARC
  5
2F7
100
AcDbEntity
  8
0
100
AcDbCircle
 62
7
  6
CONTINUOUS
 10
72.4040191424
 20
46.6773623052
 40
6.4
100
AcDbArc
 50
46.7368326175
 51
226.7368326175
  0
ARC
  5
2F8
100
AcDbEntity
  8
0
100
AcDbCircle
 62
7
  6
CONTINUOUS
 10
72.4040191424
 20
46.6773623052
 40
6.2659677546
100
AcDbArc
 50
207.1555524023
 51
66.3181128327
  0
ARC
  5
2F9
100
AcDbEntity
  8
A_ACHSEN
100
AcDbCircle
 62
7
  6
CONTINUOUS
 10
72.4040191424
 20
46.6773623052
 40
5.025
100
AcDbArc
 50
71.4395680603
 51
202.0340971747
  0
ARC
  5
2FA
100
AcDbEntity
  8
0
100
AcDbCircle
 62
7
  6
CONTINUOUS
 10
72.4040191424
 20
46.6773623052
 40
5.025
100
AcDbArc
 50
202.0340971747
 51
71.4395680603
  0
CIRCLE
  5
2FB
100
AcDbEntity
  8
A_FASEN
100
AcDbCircle
 62
7
  6
CONTINUOUS
 10
72.4040191424
 20
46.6773623052
 40
5.0
  0
CIRCLE
  5
2FC
100
AcDbEntity
  8
A_FASEN
100
AcDbCircle
 62
7
  6
CONTINUOUS
 10
72.4040191424
 20
46.6773623052
 40
3.5
  0
ARC
  5
2FD
100
AcDbEntity
  8
0
100
AcDbCircle
 62
7
  6
CONTINUOUS
 10
73.3816751943
 20
53.0394646052
 40
20.6430074501
100
AcDbArc
 50
80.0586998481
 51
80.6545678655
  0
ARC
  5
2FE
100
AcDbEntity
  8
0
100
AcDbCircle
 62
7
  6
CONTINUOUS
 10
89.3575792033
 20
29.4475061835
 40
0.2499996968
100
AcDbArc
 50
314.5368811124
 51
46.7368538189
  0
ARC
  5
2FF
100
AcDbEntity
  8
0
100
AcDbCircle
 62
7
  6
CONTINUOUS
 10
90.6294319261
 20
30.7989030106
 40
0.249999697
100
AcDbArc
 50
226.7368114603
 51
318.9367840784
  0
ARC
  5
300
100
AcDbEntity
  8
A_RUNDUNGEN
100
AcDbCircle
 62
7
  6
CONTINUOUS
 10
96.5617777796
 20
46.4681237465
 40
0.2500003086
100
AcDbArc
 50
359.5038857058
 51
91.7367080446
  0
ARC
  5
301
100
AcDbEntity
  8
0
100
AcDbCircle
 62
7
  6
CONTINUOUS
 10
96.5190983536
 20
48.3369090325
 40
0.249999697
100
AcDbArc
 50
271.7368114603
 51
3.9367840784
  0
ARC
  5
302
100
AcDbEntity
  8
0
100
AcDbCircle
 62
7
  6
CONTINUOUS
 10
96.5753445292
 20
46.481991487
 40
0.2499996968
100
AcDbArc
 50
359.5368811124
 51
91.7368538189
  0
ARC
  5
303
100
AcDbEntity
  8
0
100
AcDbCircle
 62
7
  6
CONTINUOUS
 10
79.6577665043
 20
39.2286619953
 40
0.2249997262
100
AcDbArc
 50
134.2402872835
 51
226.7368541633
  0
ARC
  5
304
100
AcDbEntity
  8
0
100
AcDbCircle
 62
7
  6
CONTINUOUS
 10
80.2785371738
 20
39.8882568509
 40
0.2249997262
100
AcDbArc
 50
46.7368110716
 51
139.2333779515
  0
ARC
  5
305
100
AcDbEntity
  8
0
100
AcDbCircle
 62
7
  6
CONTINUOUS
 10
82.8002195911
 20
46.5395097536
 40
0.2249997262
100
AcDbArc
 50
179.2402872835
 51
271.7368541633
  0
ARC
  5
306
100
AcDbEntity
  8
0
100
AcDbCircle
 62
7
  6
CONTINUOUS
 10
82.7727667459
 20
47.4448648988
 40
0.2249997262
100
AcDbArc
 50
91.7368110716
 51
184.2333779515
  0
ARC
  5
307
100
AcDbEntity
  8
0
100
AcDbCircle
 62
7
  6
CONTINUOUS
 10
79.8527194522
 20
53.9311096671
 40
0.2249997262
100
AcDbArc
 50
224.2402872835
 51
316.7368541633
  0
ARC
  5
308
100
AcDbEntity
  8
0
100
AcDbCircle
 62
7
  6
CONTINUOUS
 10
79.1931245967
 20
54.5518803366
 40
0.2249997262
100
AcDbArc
 50
136.7368110716
 51
229.2333779515
  0
ARC
  5
309
100
AcDbEntity
  8
0
100
AcDbCircle
 62
7
  6
CONTINUOUS
 10
60.2343118856
 20
64.1016434854
 40
6.0
100
AcDbArc
 50
61.2499203072
 51
95.5723561129
  0
ARC
  5
30A
100
AcDbEntity
  8
A_ACHSEN
100
AcDbCircle
 62
7
  6
CONTINUOUS
 10
60.2125491969
 20
64.3707191453
 40
5.6
100
AcDbArc
 50
68.9726749212
 51
103.6067866081
  0
ARC
  5
30B
100
AcDbEntity
  8
A_ACHSEN
100
AcDbCircle
 62
7
  6
CONTINUOUS
 10
60.4378936447
 20
64.0898135599
 40
5.6
100
AcDbArc
 50
333.8668786268
 51
8.5009903138
  0
ARC
  5
30C
100
AcDbEntity
  8
A_RUNDUNGEN
100
AcDbCircle
 62
7
  6
CONTINUOUS
 10
58.517228535
 20
69.3593498304
 40
0.5016278987
100
AcDbArc
 50
121.5297449881
 51
134.5259998857
  0
ARC
  5
30D
100
AcDbEntity
  8
A_RUNDUNGEN
100
AcDbCircle
 62
7
  6
CONTINUOUS
 10
58.516870122
 20
69.3601116592
 40
0.5008335129
100
AcDbArc
 50
134.5578828525
 51
146.1652800684
  0
ARC
  5
30E
100
AcDbEntity
  8
A_RUNDUNGEN
100
AcDbCircle
 62
7
  6
CONTINUOUS
 10
58.5261644369
 20
69.3507784438
 40
0.5002257967
100
AcDbArc
 50
144.6285272339
 51
147.9420890684
  0
ARC
  5
30F
100
AcDbEntity
  8
A_RUNDUNGEN
100
AcDbCircle
 62
7
  6
CONTINUOUS
 10
63.2402438282
 20
69.5832935251
 40
0.2522179677
100
AcDbArc
 50
274.7197751147
 51
291.7113510592
  0
ARC
  5
310
100
AcDbEntity
  8
A_RUNDUNGEN
100
AcDbCircle
 62
7
  6
CONTINUOUS
 10
63.240834712
 20
69.5818216219
 40
0.2507225117
100
AcDbArc
 50
241.2530798821
 51
257.7650410439
  0
ARC
  5
311
100
AcDbEntity
  8
A_RUNDUNGEN
100
AcDbCircle
 62
7
  6
CONTINUOUS
 10
63.4417065641
 20
62.5638173298
 40
0.25
100
AcDbArc
 50
38.7368514926
 51
128.7368326175
  0
ARC
  5
312
100
AcDbEntity
  8
A_RUNDUNGEN
100
AcDbCircle
 62
7
  6
CONTINUOUS
 10
59.3743690877
 20
67.6340013356
 40
0.25
100
AcDbArc
 50
308.7368326175
 51
38.7368137423
  0
ARC
  5
313
100
AcDbEntity
  8
0
100
AcDbCircle
 62
7
  6
CONTINUOUS
 10
89.6338752641
 20
63.6309223661
 40
0.2499996968
100
AcDbArc
 50
44.5368811124
 51
136.7368538189
  0
ARC
  5
314
100
AcDbEntity
  8
0
100
AcDbCircle
 62
7
  6
CONTINUOUS
 10
88.2824784369
 20
64.9027750889
 40
0.249999697
100
AcDbArc
 50
316.7368114603
 51
48.9367840784
  0
ARC
  5
315
100
AcDbEntity
  8
0
100
AcDbCircle
 62
7
  6
CONTINUOUS
 10
64.2805198378
 20
72.0636946946
 40
0.2499289183
100
AcDbArc
 50
309.545014526
 51
28.4655126221
  0
ARC
  5
316
100
AcDbEntity
  8
0
100
AcDbCircle
 62
7
  6
CONTINUOUS
 10
64.1964280388
 20
72.2188997912
 40
0.2498809658
100
AcDbArc
 50
28.4628161916
 51
107.8217539568
  0
ARC
  5
317
100
AcDbEntity
  8
A_RUNDUNGEN
100
AcDbCircle
 62
7
  6
CONTINUOUS
 10
63.2406973622
 20
69.5807639683
 40
0.2496597897
100
AcDbArc
 50
257.7444073502
 51
274.6638108462
  0
ARC
  5
318
100
AcDbEntity
  8
0
100
AcDbCircle
 62
7
  6
CONTINUOUS
 10
59.6298606137
 20
70.2972306864
 40
0.225002385
100
AcDbArc
 50
118.409245642
 51
275.5689241826
  0
LINE
  5
319
100
AcDbEntity
  8
0
100
AcDbLine
 62
7
  6
CONTINUOUS
 10
76.7074560084
 20
73.4128113379
 11
76.7338165455
 21
73.408482867
  0
SPLINE
  5
31A
100
AcDbEntity
  8
0
100
AcDbSpline
 62
7
  6
CONTINUOUS
 70
0
 71
3
 72
26
 73
22
 74
0
 42
0.0000001
 43
0.0000001
 44
0.0000000001
 40
0.0
 40
0.0
 40
0.0
 40
0.0
 40
0.0009626732
 40
0.0036237369
 40
0.0079100975
 40
0.0137364863
 40
0.0209614567
 40
0.0294273794
 40
0.0494800779
 40
0.0728766798
 40
0.0987535084
 40
0.1265376677
 40
0.1557741129
 40
0.2174931262
 40
0.2823173964
 40
0.3493459977
 40
0.4180485488
 40
0.5591872344
 40
0.7039912438
 40
0.8513032361
 40
1.0
 40
1.0
 40
1.0
 40
1.0
 10
64.1199096129
 20
72.456916316
 30
0.0
 10
64.122090715
 20
72.4580052587
 30
0.0
 10
64.1310514811
 20
72.4603178169
 30
0.0
 10
64.1498300877
 20
72.4671652701
 30
0.0
 10
64.1807149991
 20
72.4768889938
 30
0.0
 10
64.2224457696
 20
72.4904935059
 30
0.0
 10
64.2743739851
 20
72.5070193068
 30
0.0
 10
64.3606686803
 20
72.5343298578
 30
0.0
 10
64.4862036028
 20
72.5733851124
 30
0.0
 10
64.6541533787
 20
72.6245105661
 30
0.0
 10
64.8412486471
 20
72.6799594373
 30
0.0
 10
65.0429706101
 20
72.7380791142
 30
0.0
 10
65.3325832099
 20
72.8189557975
 30
0.0
 10
65.7138902899
 20
72.9201674495
 30
0.0
 10
66.189877545
 20
73.0374297578
 30
0.0
 10
66.685216329
 20
73.1497279536
 30
0.0
 10
67.3718689873
 20
73.2916575264
 30
0.0
 10
68.2566033045
 20
73.4474305554
 30
0.0
 10
69.3442121955
 20
73.5941036046
 30
0.0
 10
70.4559905384
 20
73.6977475422
 30
0.0
 10
71.2048610268
 20
73.736201672
 30
0.0
 10
71.5812398125
 20
73.747639518
 30
0.0
  0
LINE
  5
31B
100
AcDbEntity
  8
A_RUNDUNGEN
100
AcDbLine
 62
7
  6
CONTINUOUS
 10
54.1239961999
 20
66.6794892916
 11
54.1290941914
 21
66.6747049089
  0
LINE
  5
31C
100
AcDbEntity
  8
A_RUNDUNGEN
100
AcDbLine
 62
7
  6
CONTINUOUS
 10
51.899376684
 20
59.9376949938
 11
51.8282850265
 21
59.8278817568
  0
LINE
  5
31D
100
AcDbEntity
  8
A_RUNDUNGEN
100
AcDbLine
 62
7
  6
CONTINUOUS
 10
62.9052649447
 20
69.172205022
 11
62.8898675196
 21
69.1656867961
  0
LINE
  5
31E
100
AcDbEntity
  8
0
100
AcDbLine
 62
7
  6
CONTINUOUS
 10
76.7739234436
 20
73.3202879554
 11
76.9086077193
 21
73.3554316549
  0
SPLINE
  5
31F
100
AcDbEntity
  8
0
100
AcDbSpline
 62
7
  6
CONTINUOUS
 70
0
 71
3
 72
8
 73
4
 74
0
 42
0.0000001
 43
0.0000001
 44
0.0000000001
 40
0.0
 40
0.0
 40
0.0
 40
0.0
 40
1.0
 40
1.0
 40
1.0
 40
1.0
 10
76.9086047907
 20
73.3554428782
 30
0.0
 10
76.9427209361
 20
73.3643449283
 30
0.0
 10
76.9795428671
 20
73.3658950894
 30
0.0
 10
77.0142865116
 20
73.3598920034
 30
0.0
  0
SPLINE
  5
320
100
AcDbEntity
  8
0
100
AcDbSpline
 62
7
  6
CONTINUOUS
 70
0
 71
3
 72
8
 73
4
 74
0
 42
0.0000001
 43
0.0000001
 44
0.0000000001
 40
0.0
 40
0.0
 40
0.0
 40
0.0
 40
1.0
 40
1.0
 40
1.0
 40
1.0
 10
76.679927629
 20
73.2728895111
 30
0.0
 10
76.707224181
 20
73.2949440269
 30
0.0
 10
76.739957876
 20
73.3114649676
 30
0.0
 10
76.7739137259
 20
73.3203251977
 30
0.0
  0
SPLINE
  5
321
100
AcDbEntity
  8
A_RUNDUNGEN
100
AcDbSpline
 62
7
  6
CONTINUOUS
 70
0
 71
3
 72
8
 73
4
 74
0
 42
0.0000001
 43
0.0000001
 44
0.0000000001
 40
0.0
 40
0.0
 40
0.0
 40
0.0
 40
1.0
 40
1.0
 40
1.0
 40
1.0
 10
58.118272261
 20
69.6403467786
 30
0.0
 10
58.1570316653
 20
69.6949425969
 30
0.0
 10
58.2079634406
 20
69.7425061893
 30
0.0
 10
58.265088888
 20
69.777430079
 30
0.0
  0
SPLINE
  5
322
100
AcDbEntity
  8
A_RUNDUNGEN
100
AcDbSpline
 62
7
  6
CONTINUOUS
 70
0
 71
3
 72
18
 73
14
 74
0
 42
0.0000001
 43
0.0000001
 44
0.0000000001
 40
0.0
 40
0.0
 40
0.0
 40
0.0
 40
0.0032460536
 40
0.0131693611
 40
0.0301479904
 40
0.0545537938
 40
0.0867579278
 40
0.1271313599
 40
0.2338696478
 40
0.3767447347
 40
0.5539067641
 40
0.7625827664
 40
1.0
 40
1.0
 40
1.0
 40
1.0
 10
52.3360703046
 20
64.8712141572
 30
0.0
 10
52.3359523867
 20
64.8713304864
 30
0.0
 10
52.3368843275
 20
64.8719130867
 30
0.0
 10
52.3373893359
 20
64.8730172804
 30
0.0
 10
52.3394082974
 20
64.875022363
 30
0.0
 10
52.3417638019
 20
64.8778169072
 30
0.0
 10
52.3451099371
 20
64.8815185531
 30
0.0
 10
52.3511847359
 20
64.8883339407
 30
0.0
 10
52.3610980507
 20
64.8993390397
 30
0.0
 10
52.3756823082
 20
64.9155035149
 30
0.0
 10
52.393797746
 20
64.9354998177
 30
0.0
 10
52.415185958
 20
64.9590364987
 30
0.0
 10
52.4305232279
 20
64.9758577801
 30
0.0
 10
52.4386929954
 20
64.9848037075
 30
0.0
  0
SPLINE
  5
323
100
AcDbEntity
  8
A_RUNDUNGEN
100
AcDbSpline
 62
7
  6
CONTINUOUS
 70
0
 71
3
 72
25
 73
21
 74
0
 42
0.0000001
 43
0.0000001
 44
0.0000000001
 40
0.0
 40
0.0
 40
0.0
 40
0.0
 40
0.2478630279
 40
0.4527512745
 40
0.6191931371
 40
0.6891890084
 40
0.7509661281
 40
0.8050124218
 40
0.8519752677
 40
0.8925418349
 40
0.9273991795
 40
0.9568670963
 40
0.9692444785
 40
0.9797986078
 40
0.988340333
 40
0.994680507
 40
0.996965909
 40
0.9986300056
 40
0.9996491821
 40
1.0
 40
1.0
 40
1.0
 40
1.0
 10
58.5623668314
 20
69.956541298
 30
0.0
 10
58.6398469615
 20
70.0025494322
 30
0.0
 10
58.7817738394
 20
70.0859179886
 30
0.0
 10
58.9769647704
 20
70.1980564329
 30
0.0
 10
59.1166570138
 20
70.2769790424
 30
0.0
 10
59.2113170059
 20
70.3298330557
 30
0.0
 10
59.2703924372
 20
70.3626007962
 30
0.0
 10
59.3222070362
 20
70.3911951783
 30
0.0
 10
59.3673246769
 20
70.4159649127
 30
0.0
 10
59.4063737138
 20
70.4372929496
 30
0.0
 10
59.4398778515
 20
70.4555023223
 30
0.0
 10
59.4643995361
 20
70.4687826649
 30
0.0
 10
59.4811624893
 20
70.477826662
 30
0.0
 10
59.4912375452
 20
70.4832633793
 30
0.0
 10
59.4993808037
 20
70.4876091352
 30
0.0
 10
59.5048905905
 20
70.4906189153
 30
0.0
 10
59.5081832093
 20
70.4922857442
 30
0.0
 10
59.5097969126
 20
70.4932838576
 30
0.0
 10
59.5107440171
 20
70.4935163793
 30
0.0
 10
59.5112205134
 20
70.4940372116
 30
0.0
 10
59.5113245563
 20
70.4939634451
 30
0.0
  0
SPLINE
  5
324
100
AcDbEntity
  8
0
100
AcDbSpline
 62
7
  6
CONTINUOUS
 70
0
 71
3
 72
32
 73
28
 74
0
 42
0.0000001
 43
0.0000001
 44
0.0000000001
 40
0.0
 40
0.0
 40
0.0
 40
0.0
 40
0.1595805083
 40
0.3182178342
 40
0.396701482
 40
0.4742339381
 40
0.5504004192
 40
0.6246547769
 40
0.6962601786
 40
0.7642390652
 40
0.8273260222
 40
0.8565140475
 40
0.8838216201
 40
0.9089792382
 40
0.931680721
 40
0.9516180336
 40
0.9684903738
 40
0.9756861616
 40
0.9820065849
 40
0.9874153198
 40
0.991881765
 40
0.9953887018
 40
0.9979208255
 40
0.9988165573
 40
0.9994628667
 40
0.9998578852
 40
1.0
 40
1.0
 40
1.0
 40
1.0
 10
68.2787180769
 20
70.7441396449
 30
0.0
 10
68.5761379196
 20
70.7951187364
 30
0.0
 10
69.1711550244
 20
70.8858133154
 30
0.0
 10
69.9165647641
 20
70.9714618507
 30
0.0
 10
70.509335596
 20
71.0231338891
 30
0.0
 10
70.9473615916
 20
71.0533640937
 30
0.0
 10
71.3778659041
 20
71.0754040884
 30
0.0
 10
71.7974856519
 20
71.0895785896
 30
0.0
 10
72.2018020395
 20
71.0964299078
 30
0.0
 10
72.5850565695
 20
71.0967914169
 30
0.0
 10
72.8880678809
 20
71.092489274
 30
0.0
 10
73.1141244635
 20
71.0869365675
 30
0.0
 10
73.2684527724
 20
71.0821526235
 30
0.0
 10
73.4104922305
 20
71.0769032541
 30
0.0
 10
73.5385778095
 20
71.0714995019
 30
0.0
 10
73.6509873951
 20
71.0662463094
 30
0.0
 10
73.7340933258
 20
71.0620457666
 30
0.0
 10
73.7914760423
 20
71.0590162278
 30
0.0
 10
73.8272108179
 20
71.0570888676
 30
0.0
 10
73.857788348
 20
71.0554271394
 30
0.0
 10
73.8830613929
 20
71.0540386432
 30
0.0
 10
73.9028832791
 20
71.0530055789
 30
0.0
 10
73.9160095177
 20
71.0522482685
 30
0.0
 10
73.9236624985
 20
71.0519724281
 30
0.0
 10
73.9273920903
 20
71.0516476975
 30
0.0
 10
73.9295012789
 20
71.0518660263
 30
0.0
 10
73.9306551829
 20
71.0515329476
 30
0.0
 10
73.9308642121
 20
71.0517018348
 30
0.0
  0
ENDSEC
  0
SECTION
  2
OBJECTS
  0
DICTIONARY
  5
325
100
AcDbDictionary
  3
ACAD_GROUP
350
326
  3
ACAD_MLINESTYLE
350
327
  0
DICTIONARY
  5
326
102
{ACAD_REACTORS
330
325
102
}
100
AcDbDictionary
  0
DICTIONARY
  5
327
102
{ACAD_REACTORS
330
325
102
}
100
AcDbDictionary
  3
STANDARD
350
328
  0
MLINESTYLE
  5
328
102
{ACAD_REACTORS
330
327
102
}
100
AcDbMlineStyle
  2
STANDARD
 70
0
  3

 62
256
 51
90.0
 52
90.0
 71
2
 49
0.5
 62
256
  6
BYLAYER
 49
-0.5
 62
256
  6
BYLAYER
  0
ENDSEC
  0
EOF
